Oops, an error
Loading. Please wait.

Te Doy Gloria tab

52 views 1 this week
no commentswrite comment
1 2 3 4 5
3 more votes to show rating
add to favorites
×
Save as Personal and add changes to this tab that will be seen only by you. Learn more ›
×
You can save this tab as Personal to edit and correct it or add notes. All changes will be seen only by you. Learn more »
launch autoscroll
font size
0
reset
how to read this tab
guitar tuner
edit
Autoscroll
slow
fast
+/-
esc
set tempo
stop
Notas:

El arreglo 1 y el 3 se hace con un distor simple combinado con
un delay como de 40ms y de preferencia solo 2 o 3 ecos(para --
evitar mucho ruido) y se debe ajustar el volumen de eco al 100%
o 0 atn dependiendo el pedal)para que tenga el volumen parejo.

El arreglo 2 se hace con un distor con más reverb o ecos mas
cerrados. Se puede hace con el mismo efecto que el arreglo 1y3,
pero.. hay que hacer vibrato en cada nota para mantener la
profundidad del sonido.


Arreglo 1

Se toca en el intro y sobre las estrofas de los estribillos:


   Esto es lo que dura un compás
   ____________/____________
  /
  6 ------------------------||
  5 ------------------------||
  4 ------------------------||
  3 -12-9--------12-9-------||
  2 -------12-10------12-10-||
  1 ------------------------||


Arreglo 2

Se toca en los "precoros".. en la pate que dice:
"..la que me salvó.. "

  6 -------------------------------------------------------||
  5 -------------------------------------------------------||
  4 -------------------------------------------------------||
  3 -------------------------------------------------------||
  2 --13~15~17--13-12-13~15--13-12-13-12-13-12-13----------||
  1 ----------------------------------------------17-17-15-||

Arreglo 3

Se toca en el puente.. en la parte que dice:
"..con una corona de espinos.."


    Esto es lo que dura un compás
   ____________/____________
  /
  6 -------------------------|         |---------------------------||
  5 -------------------------|         |---------------------------||
  4 -------------------------| x 3-->  |---------------------------||
  3 -13-12-------13-12-------|         |-------------------14--12--||
  2 -------14-12-------14-12-|         |----------15-13-12---------||
  1 -------------------------|         |-15-13-12------------------||

            
            
Suggest correction
Creating personal tab
Creating personal tab
You can edit any tab online and save it as your Personal.

You can edit, replace or remove any tab part or add personal notes – all changes will be seen only by you.

Personal tabs can be accessed anytime from any device, even offline.
Learn more »
Give kudos to tab author, rate the tab!
1 2 3 4 5
comments
print report bad tab
guest
Wanna post a correction for this tab? Suggest correction