Oops, an error
Loading. Please wait.

Shades Of Blue Live ukulele

43 views 1 this week
no commentswrite comment
1 2 3 4 5
3 more votes to show rating
add to favorites
×
Save as Personal and add changes to this tab that will be seen only by you. Learn more ›
×
You can save this tab as Personal to edit and correct it or add notes. All changes will be seen only by you. Learn more »
launch autoscroll
font size
0
reset
transpose
0
reset
simplify chords
display chords
guitar tuner
edit
Autoscroll
slow
fast
+/-
esc
set tempo
stop
About this tab version
Uke chords and tabs for the song. Enjoy :). Was this info helpful? Yes No
Strumming
There is no strumming pattern for this song yet. and get +5 IQ
https://youtu.be/UTbJ86j-PtA
If you just wanna play chords, then use these fingerings: 
Cmaj7: (0002)
F6: (x555) OR (5555)
G6: (x777)
F#m: (2120)
A: (2104)
B: (4322)

[Verse 1]
  Cmaj7            F6
A|---------------------5-----5-----5-----5-|
E|---0---0---0---0---5-----5-----5-----5---| x3
C|-0---0---0---0---5-----5-----5-----5-----|
G|-----------------------------------------|

Cmaj7              F6
'Fraid I'm going mad
Cmaj7               F6
'Fraid I've lost my mind
Cmaj7               F6
'Fraid I've made a big mistake

  Cmaj7            F6
A|---------------------5-----5-----5----/-|
E|---0---0---0---0---5-----5-----5-----5/-|
C|-0---0---0---0---5-----5-----5-----5--/-|
G|----------------------------------------|

      Cmaj7
But I knew it
Yes I knew it
       F6
Yes I knew it

[Pre-chorus]
       G6                        F6
A|-/7-----7-----7-----7-----\-5-----5-----5-----5-----|
E|-/7---7-----7-----7-----7-\-5---5-----5-----5-----5-| x4
C|-/7-7-----7-----7-----7---\-5-5-----5-----5-----5---|
G|----------------------------------------------------|

G6            F6
You're like a blazing fire
G6       F6
In the sorrow
G6       F6
Born of infinite night
G6        F6
Moving in all directions

[Chorus]
 Cmaj7                   F6
A|------2-----------2-----------5-----------5-----|
E|--0-------0---0-----------5-------5---5-------5-| x4
C|0-----------0---------0-5-----------5-----------|
G|----0---0-------0---0-------5---5-------5---5---|

Cmaj7        F6
I'm not over you
Cmaj7         F6
But I'm over feeling shades of blue
Cmaj7        F6
I'm not over you
Cmaj7         F6
But I'm over feeling shades of

 Cmaj7  F6
A|2---2--5---5-|
E|0---0--5---5-| x2
C|0---0--5---5-|
G|0---0------5-|

Cmaj7 F6
Blue
Cmaj7 F6
Blue

[Verse 2]
  Cmaj7            F6
A|---------------------5-----5-----5-----5-|
E|---0---0---0---0---5-----5-----5-----5---| x3
C|-0---0---0---0---5-----5-----5-----5-----|
G|-----------------------------------------|

Cmaj7            F6
I knew I was a chess piece in your game
Cmaj7      F6
Moving me every which way
Cmaj7                 F6
Thought I'd hold out for your love someday
Cmaj7
But I couldn't
             F6
'Cause you wouldn't
Yeah

  Cmaj7            F6
A|---------------------5-----5-----5----/-|
E|---0---0---0---0---5-----5-----5-----5/-|
C|-0---0---0---0---5-----5-----5-----5--/-|
G|----------------------------------------|

Cmaj7
But I couldn't
             F6
'Cause you wouldn't
Yeah

[Pre-chorus]
       G6                        F6
A|-/7-----7-----7-----7-----\-5-----5-----5-----5-----|
E|-/7---7-----7-----7-----7-\-5---5-----5-----5-----5-| x3
C|-/7-7-----7-----7-----7---\-5-5-----5-----5-----5---|
G|----------------------------------------------------|

G6            F6
You're like a blazing fire
G6       F6
In the sorrow
G6       F6
Born of infinite night

       G6                    F6
A|-/7-----7-----7-----7-----------|
E|-/7---7-----7-----7-----7-4-5-0-|
C|-/7-7-----7-----7-----7---4-5-0-|
G|--------------------------------|

G6        F6
Moving in all directions

[Chorus]
 Cmaj7   F6  Cmaj7   F6  Cmaj7   F6  Cmaj7   F6  Cmaj7   F6  Cmaj7   F6
A|-------------------0-------------------------------------------------|
E|-0-----5-----0-----------0-----5-----0-----5-----0-----5-----0-----5-|
C|-0-----5-----0-----------0-----5-----0-----5-----0-----5-----0-----5-|
G|---------------------------------------------------------------------|

Cmaj7        F6
I'm not over you
Cmaj7         F6
But I'm over feeling shades of blue
Cmaj7        F6
I'm not over you
Cmaj7         F6
But I'm over feeling shades of
Cmaj7 F6
Blue
Cmaj7 F6
Blue

[Instrumental]
   F#m             A           B
A|-0-0-0-0-0-0-0---4-4-4-4-4---2-2-|
E|-2-2-2-2-2-2-2---0-0-0-0-0---2-2-| x2
C|-1-1-1-1-1-1-1---1-1-1-1-1---3-3-|
G|-2-2-2-2-2-2-2---2-2-2-2-2---4-4-|

F#m A B F#m A B

[Bridge]
   F#m             A           B
A|-0-0-0-0-0-0-0---4-4-4-4-4---2-2-|
E|-2-2-2-2-2-2-2---0-0-0-0-0---2-2-| x4
C|-1-1-1-1-1-1-1---1-1-1-1-1---3-3-|
G|-2-2-2-2-2-2-2---2-2-2-2-2---4-4-|

F#m             A    B
Happiness is a state of mind
F#m             A    B
And you almost stole mine
F#m             A    B
Happiness is a state of mind
F#m             A    B
And you almost stole mine

[Outro]
   Cmaj7           F6
A|-2-2-2-2-2-2-2---5-5-5-5-5-5-5-|
E|-0-0-0-0-0-0-0---5-5-5-5-5-5-5-| x4
C|-0-0-0-0-0-0-0---5-5-5-5-5-5-5-|
G|-0-0-0-0-0-0-0---5-5-5-5-5-5-5-|

Cmaj7        F6
I'm not over you
Cmaj7         F6
But I'm over feeling shades of blue
Cmaj7        F6
I'm not over you
Cmaj7         F6
But I'm over feeling shades of

  Cmaj7          F6
A|-2-2-2-2-------5-5-5-5-----|
E|-0-0-0-0-------5-5-5-5-----| x3
C|-0-0-0-0-------5-5-5-5-----|
G|-0-0-0-0-------5-5-5-5-----|

Cmaj7
Feeling shades of
F6
Feeling shades of
Cmaj7
Feeling shades of
F6
Feeling shades of
Cmaj7
Feeling shades of
F6
Feeling shades of

  Cmaj7  F6
A|-2-----5-|
E|-0-----5-| x5
C|-0-----5-|
G|-0-----5-|

Cmaj7 F6
Blue
Cmaj7 F6
Blue
Cmaj7 F6
Blue
Cmaj7 F6
Blue
Cmaj7 F6
Blue

            
            
Suggest correction
Creating personal tab
Creating personal tab
You can edit any tab online and save it as your Personal.

You can edit, replace or remove any tab part or add personal notes – all changes will be seen only by you.

Personal tabs can be accessed anytime from any device, even offline.
Learn more »
Give kudos to tab author, rate the tab!
1 2 3 4 5
comments
print report bad tab
guest
You may want to rate the tab now too:
select rating
Wanna post a correction for this tab? Suggest correction