Oops, an error
Loading. Please wait.

Lake Skaneateles tab

49 views 1 this week
no commentswrite comment
1 2 3 4 5
3 more votes to show rating
add to favorites
×
Save as Personal and add changes to this tab that will be seen only by you. Learn more ›
×
You can save this tab as Personal to edit and correct it or add notes. All changes will be seen only by you. Learn more »
launch autoscroll
font size
0
reset
how to read this tab
guitar tuner
edit
Autoscroll
slow
fast
+/-
esc
set tempo
stop
Author
Difficulty
About this tab version
This TABS is like the original plucked version by the Milk Carton Kids (Kenneth Pattengale and Joey Ryan). Was this info helpful? Yes No
[Intro]
[I sing/hum the second guitar part w/ this intro])
e|-------------|-------------|------------|------------|------------|------------|------------|------------|
B|---3-3----3-3|---3-3----3-3|--4-4----4-4|--4-4----4-4|--3-3----3-3|--3-3----3-3|--4-4----4-4|--4-4----4-4|
G|---3-3----3-3|-------------|--0-0----0-0|--0-0----0-0|--3-3----3-3|--3-3----3-3|--0-0----0-0|--0-0----0-0|
D|-------------|---3-3----3-3|------------|------------|------------|------------|------------|------------|
A|-1------1----|1-------1----|6------6----|6-----6-----|1------1----|1------1----|6------6----|6------6----|
E|-------------|-------------|------------|------------|------------|------------|------------|------------|

[Verse]
("Hush-ed now August/the Russians..) (2nd time: Be still Puget sound/I've abandoned)
e|-----------------|-----------------|----------------|----------------|
B|---4-4----4-4----|-----------------|---4-4----4-4---|---4-4----4-4---|
G|---5-5----5-5----|---7-7-----7-7---|---0-0----0-0---|---0-0----0-0---|   X2
D|-----------------|---8-8-----8-8---|----------------|----------------|
A|-----------------|-----------------|-6------6-------|-6------6-------|
E|-4------4--------|-6-------6-------|----------------|----------------|

[Verse cont.]
("On the side of the road, a dandelion...") (2nd time:I could dance all alone)
e|-----------|-----------|------------|------------|------------|
B|--4-4---4-4|--4-4---4-4|--4-4----4-4|--4-4---4-4-|--4-4---4-4-|
G|--5-5---5-5|--5-5---5-5|--5-5----5-5|--0-0---0-0-|--0-0---0-0-|
D|-----------|-----------|------------|------------|------------|
A|3-----3----|-----------|------------|6-----6-----|6-----6-----|
E|-----------|4-----4----|4------4----|------------|------------|

[Verse cont.] 
"Lake Skaneateles, deep in the heart of the echoes I hear." 
e|-----------------|-----------------|----------------|----------------|
B|---4-4----4-4----|-----------------|---4-4----4-4---|---4-4----4-4---|
G|---5-5----5-5----|---7-7-----7-7---|---0-0----0-0---|---0-0----0-0---|  
D|-----------------|---8-8-----8-8---|----------------|----------------|
A|-----------------|-----------------|-6------6-------|-6------6-------|
E|-4------4--------|-6-------6-------|----------------|----------------|

[Chorus]
"And it's you,"
e|-----------|------------|------------|------------|
B|--4-4---4-4|--4-4----4-4|--4-4---4-4-|--4-4---4-4-|
G|--5-5---5-5|--5-5----5-5|--0-0---0-0-|--0-0---0-0-|
D|-----------|------------|------------|------------|
A|-----------|------------|6-----6-----|6-----6-----|
E|4-----4----|4------4----|------------|------------|

"Only you [who] takes my breath away..."
e|-----------|------------|---------|----------|
B|--4-4---4-4|--4-4----4-4|--3------|--4----4--|
G|--5-5---5-5|--5-5----5-5|--3------|--0----0--|
D|-----------|------------|---------|----------|
A|-----------|------------|1--------|6-----6---|
E|4-----4----|4------4----|---------|----------|

X2 (all)

Note: The second time through ("Be still, Puget Sound"), instead of playing in a waltz (oom-pa-pa) in 3,
I switch to 2, like the original song.  This starts in the last bar of tabs written here.  Enjoy!

            
            
Suggest correction
Creating personal tab
Creating personal tab
You can edit any tab online and save it as your Personal.

You can edit, replace or remove any tab part or add personal notes – all changes will be seen only by you.

Personal tabs can be accessed anytime from any device, even offline.
Learn more »
Give kudos to tab author, rate the tab!
1 2 3 4 5
comments
print report bad tab
guest
You may want to rate the tab now too:
select rating
Wanna post a correction for this tab? Suggest correction