Oops, an error
Loading. Please wait.

Midnight Blue tab

version 2
version 2

Whole song

Interactive

6,944 views 99 this week
5 commentsread comments
1 2 3 4 5
x 16
add to favorites
×
Save as Personal and add changes to this tab that will be seen only by you. Learn more ›
×
You can save this tab as Personal to edit and correct it or add notes. All changes will be seen only by you. Learn more »
launch autoscroll
font size
0
reset
how to read this tab
guitar tuner
edit
Autoscroll
slow
fast
+/-
esc
set tempo
stop
Author
Midnight Blue by Kenny Burrell
Tabbed by: axe victim
Tuning: EADGBe
From the wonderful Midnight Blue album by Kenny Burrell. 

[Intro]( swing feel... )
___Fm________________Gm_________________Ab_____________Gm__________________
e|------------------------------------|------------------------------------|
B|-------1-----------3----------------|-4--------------3-------------------|
G|-------1-----------3----------------|-5--------------3-------------------|
D|-------3-----------5----------------|-6--------------5-------(1)---------|
A|------------------------------------|---------------------------(3)------|
E|(1)---------------(3)---------------|(4)------------(3)------------------|
   t                 t                  t              t
 | 1  -  -  2  -  -  3  -  -  4  -  - | 1  -  -  2  -  -  3  -  -  4  -  - |

Bass notes in brackets are optional:
You could use min7 and maj7 chords, like this: 
Fm7 (1x111x)
Gm7 (3x333x)
Abmaj7 (4x554x)

[Part A]
___Fm_(133111)_________________________________________C7#9_(x3234x)_______
            ( / = slide up. h = hammer-on, p = pull-off  )
e|------------------------------------|------------------------------------|
B|------------------------------------|------------------------------------|
G|------------------------------------|----------------8-------------------|
D|----------6--------8h9p8p6----------|----------------8-----------------6-|
A|6/8-------------8-----------8-----6-|-8--------------7-----------8-------|
E|------------------------------------|----------------8-------------------|
 | 1  -  -  2  -  -  3  -  -  4  -  - | 1  -  -  2  -  -  3  -  -  4  -  - |

___Fm__________________________________________________C7#9________________
e|------------------------------------|------------------------------------|
B|------------------------------------|------------------------------------|
G|----------8-----10------------------|----------------8-------------------|
D|-8/10--------------8h9p8p6----------|----------------8-------------------|
A|----------------------------8-----6-|-8--------------7-------------------|
E|------------------------------------|----------------8-------------------|

___Fm__________________________________________________C7#9________________
             ( alternatively you could slide the notes here... )
e|------------------------------------|------------------------------------|
B|------------------------------------|------------------------------------|
G|------------------------------------|----------------8-------------------|
D|----------6--------8/9\8p6----------|----------------8-----------------6-|
A|6/8-------------8-----------8-----6-|-8--------------7-----------8-------|
E|------------------------------------|----------------8-------------------|

___Fm__________________________________________________C7#9________________
e|------------------------------------|------------------------------------|
B|------------------------------------|------------------------------------|
G|----------8-----10------------------|----------------8---------------10--|
D|-8/10--------------8h9p8p6----------|----------------8-----------10------|
A|----------------------------8-----6-|-8--------------7-------------------|
E|------------------------------------|----------------8-------------------|

[Part B]
___Gm7b5____________________________C7b9________________________________Fm7_
e|-11----------------------9--11----9-|-------------------------8--9-----8-|
B|-11-------------------------------9-|----------------------------------9-|
G|-10-------------------------------9-|----------------------------------8-|
D|-11-------------------------------8-|----------------------------------10|
A|-10-------------------------------x-|----------------------------------8-|
E|----------------------------------8-|------------------------------------|
                                    t
 | 1  -  -  2  -  -  3  -  -  4  -  - | 1  -  -  2  -  -  3  -  -  4  -  - |

____________________________________Bb7________________________________Bbm9_
e|------------------------------------|----------------------------------8-|
B|----------------------------------9\|----------------------------6-----6-|
G|-------------------------10-------7\|-------------------------5--------6-|
D|----------------------------------6\|----------------------------------6-|
A|----------------------------------8\|----------------------------------x-|
E|----------------------------------6\|----------------------------------6-|
                                                                         t

____________________________________Db13____________________________C7#9b13_
e|-------------------6--8-----------6-|-------------------4--6-----------4-|
B|----------------------------------4-|----------------------------------4-|
G|----------------------------------4-|----------------------------------3-|
D|----------------------------------x-|----------------------------------2-|
A|----------------------------------4-|------------------------------------|
E|------------------------------------|------------------------------------|

_______________________________________________________C7#9________________
e|------------------------------------|------------------------------------|
B|---------/6-----4--------4--6-----6-|----------------4-------------------|
G|-------------------5----------------|----------------3-------------------|
D|------------------------------------|----------2-------------------------|
A|------------------------------------|-------3----------------------------|
E|------------------------------------|------------------------------------|

************************************

| (n)  Ghost note
| h    Hammer-on
| p    Pull-off
| /    Slide up
| \    Slide down
| x    Dead note
| t    Tapping
 
***********************************

            
            
Suggest correction
Creating personal tab
Creating personal tab
You can edit any tab online and save it as your Personal.

You can edit, replace or remove any tab part or add personal notes – all changes will be seen only by you.

Personal tabs can be accessed anytime from any device, even offline.
Learn more »
comments
print report bad tab
5 comments total. Showing first comments.
0 reply
Macstudly 10 Mar 17, 2015 03:59 AM

Pretty close! Thanks

0 reply
axe victim 1,904 Mar 18, 2015 03:43 AM

@macstudly - thanks for comment. I will tab the solo eventually!

0 reply
Letalent 10 Oct 16, 2017 05:14 PM

Good job! Cant wait for the solo!

guest
You may want to rate the tab now too:
select rating
Wanna post a correction for this tab? Suggest correction