Oops, an error
Loading. Please wait.

Christmas In Blue Chair Bay tab

475 views 57 this week
no commentswrite comment
1 2 3 4 5
1 last vote to show rating
add to favorites
×
Save as Personal and add changes to this tab that will be seen only by you. Learn more ›
×
You can save this tab as Personal to edit and correct it or add notes. All changes will be seen only by you. Learn more »
launch autoscroll
font size
0
reset
how to read this tab
guitar tuner
edit
Autoscroll
slow
fast
+/-
esc
set tempo
stop
Author
Difficulty
-------------------------------------------------------------------------------
                             SONG NAME - Band Name
-------------------------------------------------------------------------------
Tabbed by: Jon Siegel


Tuning: Standard EADGBe

Capo: Fret 2

Intro:

e|------------2-3-2----------------------------2-3-2-------2-3---------------|
B|------3--5---------5---3-2-------------3--5---------5----------------------|
G|---2-----------------------4--------2------------------------4-------------|
D|---------------------------------------------------------------------------|
A|---------------------------------------------------------------------------|
E|---------------------------------------------------------------------------|

e|------------2-5--5-2-5-7--5--5-2-----------------2-------------------------|
B|------3--5------------------------5-3-----2/3--5---5---3-2-3---------------|
G|---2-----------------------------------4-----------------------------------|
D|---------------------------------------------------------------------------|
A|---------------------------------------------------------------------------|
E|---------------------------------------------------------------------------|

Verse 1:

      (D)We got some (A) mistle    (G)toe
e|----2-2-x----------0-0-x---------3-3-x-------3-3-x-------------------------|
B|----3-3-x----------2-2-x---------3-3-x-------2-3-x-------------------------|
G|----2-2-x----------2-2-x---------0-0-x-------0-0-x-------------------------|
D|----0-0-x----------2-2-x---------0-0-x-------0-0-x-------------------------|
A|----x-x-x----------0-0-x---------2-2-x-------2-2-x-------------------------|
E|----x-x-x----------x-x-x---------3-3-x-------3-3-x-------------------------|


      (D)Hung from the(A) bow of the(G)boat
e|----2-2-x----------0-0-x---------3-3-x-------3-3-x-------------------------|
B|----3-3-x----------2-2-x---------3-3-x-------2-3-x-------------------------|
G|----2-2-x----------2-2-x---------0-0-x-------0-0-x-------------------------|
D|----0-0-x----------2-2-x---------0-0-x-------0-0-x-------------------------|
A|----x-x-x----------0-0-x---------2-2-x-------2-2-x-------------------------|
E|----x-x-x----------x-x-x---------3-3-x-------3-3-x-------------------------|

      (D)Stockings are(D/F#)filled with(G)sunshine rays
e|----2-2-x------------2-2-x-----------3-3-x---------------------------------|
B|----3-3-x------------3-3-x-----------3-3-x---------------------------------|
G|----2-2-x------------2-2-x-----------0-0-x---------------------------------|
D|----0-0-x------------0-0-x-----------0-0-x---------------------------------|
A|----x-x-x------------0-0-x-----------2-2-x---------------------------------|
E|----x-x-x------------2-2-x-----------3-3-x---------------------------------|


  (G)It's(D/F#)(Em) Christmas (A)in Blue Chair (D)Bay
e|-3------2-----0-0-x----------0-0-x------------2-2--x-----------2-2-x-------|
B|-3------3-----0-0-x----------2-2-x------------3-3--x-----------3-3-x-------|
G|-0------2-----0-0-x----------2-2-x------------2-2--x-----------2-2-x-------|
D|-0------0-----2-2-x----------2-2-x------------0-0--x-----------0-0-x-------|
A|-2------0-----2-2-x----------0-0-x------------x-x--x-----------x-x-x-------|
E|-3------2-----0-0-x----------0-0-x------------x-x--x-----------x-x-x-------|



There's(D) lights up in (A)every  (G)palm
e|----2-2-x----------0-0-x---------3-3-x-------3-3-x-------------------------|
B|----3-3-x----------2-2-x---------3-3-x-------2-3-x-------------------------|
G|----2-2-x----------2-2-x---------0-0-x-------0-0-x-------------------------|
D|----0-0-x----------2-2-x---------0-0-x-------0-0-x-------------------------|
A|----x-x-x----------0-0-x---------2-2-x-------2-2-x-------------------------|
E|----x-x-x----------x-x-x---------3-3-x-------3-3-x-------------------------|


  My (D)soul like the (A) sea is   (G)calm
e|----2-2-x----------0-0-x---------3-3-x-------3-3-x-------------------------|
B|----3-3-x----------2-2-x---------3-3-x-------2-3-x-------------------------|
G|----2-2-x----------2-2-x---------0-0-x-------0-0-x-------------------------|
D|----0-0-x----------2-2-x---------0-0-x-------0-0-x-------------------------|
A|----x-x-x----------0-0-x---------2-2-x-------2-2-x-------------------------|
E|----x-x-x----------x-x-x---------3-3-x-------3-3-x-------------------------|


     (D)Tonight we're (D/F#)going to the(G)boat parade
e|----2-2-x------------2-2-x-----------3-3-x---------------------------------|
B|----3-3-x------------3-3-x-----------3-3-x---------------------------------|
G|----2-2-x------------2-2-x-----------0-0-x---------------------------------|
D|----0-0-x------------0-0-x-----------0-0-x---------------------------------|
A|----x-x-x------------0-0-x-----------2-2-x---------------------------------|
E|----x-x-x------------2-2-x-----------3-3-x---------------------------------|


  (G)It's(D/F#)(Em) Christmas (A)in Blue Chair (D)Bay
e|-3------2-----0-0-x----------0-0-x------------2-2--x-----------2-2-x-------|
B|-3------3-----0-0-x----------2-2-x------------3-3--x-----------3-3-x-------|
G|-0------2-----0-0-x----------2-2-x------------2-2--x-----------2-2-x-------|
D|-0------0-----2-2-x----------2-2-x------------0-0--x-----------0-0-x-------|
A|-2------0-----2-2-x----------0-0-x------------x-x--x-----------x-x-x-------|
E|-3------2-----0-0-x----------0-0-x------------x-x--x-----------x-x-x-------|

Chorus:

strum pattern: D DU UDU

(G) Every (D) body raise a glass (A) with me right now (Bm)

(G) To all of (D)those up in the snow (A) from all of us down South

(G) Tis the (D)season for be-(A)lievin' in (Bm)faith and(A)family

(G) Wish you were (A)here with me

Verse 2:

We (D)cleared out a (A)place in the sand (G)
e|----2-2-x----------0-0-x---------3-3-x-------3-3-x-------------------------|
B|----3-3-x----------2-2-x---------3-3-x-------2-3-x-------------------------|
G|----2-2-x----------2-2-x---------0-0-x-------0-0-x-------------------------|
D|----0-0-x----------2-2-x---------0-0-x-------0-0-x-------------------------|
A|----x-x-x----------0-0-x---------2-2-x-------2-2-x-------------------------|
E|----x-x-x----------x-x-x---------3-3-x-------3-3-x-------------------------|

  For (D)Dancer and (A)Prancer to (G) Land
e|----2-2-x----------0-0-x---------3-3-x-------3-3-x-------------------------|
B|----3-3-x----------2-2-x---------3-3-x-------2-3-x-------------------------|
G|----2-2-x----------2-2-x---------0-0-x-------0-0-x-------------------------|
D|----0-0-x----------2-2-x---------0-0-x-------0-0-x-------------------------|
A|----x-x-x----------0-0-x---------2-2-x-------2-2-x-------------------------|
E|----x-x-x----------x-x-x---------3-3-x-------3-3-x-------------------------|

    We(D)  saved the (D/F#)boat slip for (G)Santa's sleigh
e|----2-2-x------------2-2-x-----------3-3-x---------------------------------|
B|----3-3-x------------3-3-x-----------3-3-x---------------------------------|
G|----2-2-x------------2-2-x-----------0-0-x---------------------------------|
D|----0-0-x------------0-0-x-----------0-0-x---------------------------------|
A|----x-x-x------------0-0-x-----------2-2-x---------------------------------|
E|----x-x-x------------2-2-x-----------3-3-x---------------------------------|

(G)It's (D/F#) (Em)Christmas in(A)Blue Chair Bay(D)
e|-3------2-----0-0-x----------0-0-x------------2-2--x-----------2-2-x-------|
B|-3------3-----0-0-x----------2-2-x------------3-3--x-----------3-3-x-------|
G|-0------2-----0-0-x----------2-2-x------------2-2--x-----------2-2-x-------|
D|-0------0-----2-2-x----------2-2-x------------0-0--x-----------0-0-x-------|
A|-2------0-----2-2-x----------0-0-x------------x-x--x-----------x-x-x-------|
E|-3------2-----0-0-x----------0-0-x------------x-x--x-----------x-x-x-------|


Chorus:


(G) Every-(D)body raise a glass (A) with me right now (Bm)

(G) To all of (D)those up in the snow (A) from all of us down South

(G) Tis the (D)season for be-(A)lieven' in (Bm)faith and (A)family 

(G) Wish you were (A)here with me, by the sea, a little numb from drinking rum


Bridge:

e|------------2-3-2----------------------------2-3-2-------2-3---------------|
B|------3--5---------5---3-2-------------3--5---------5----------------------|
G|---2-----------------------4--------2------------------------4-------------|
D|---------------------------------------------------------------------------|
A|---------------------------------------------------------------------------|
E|---------------------------------------------------------------------------|

e|--------2-5--5-2-5-7--5--5-2------7-5-2---2-----7-5-2----------------------|
B|------3----------------------3----------3---3---------3--------------------|
G|--------------------------------------------------------4-2----------------|
D|----------------------------------------------------------- ---------------|
A|---------------------------------------------------------------------------|
E|---------------------------------------------------------------------------|

Verse 3:

 Oh I (D)think I'll  (A)sit right  (G)here
e|----2-2-x----------0-0-x---------3-3-x-------3-3-x-------------------------|
B|----3-3-x----------2-2-x---------3-3-x-------2-3-x-------------------------|
G|----2-2-x----------2-2-x---------0-0-x-------0-0-x-------------------------|
D|----0-0-x----------2-2-x---------0-0-x-------0-0-x-------------------------|
A|----x-x-x----------0-0-x---------2-2-x-------2-2-x-------------------------|
E|----x-x-x----------x-x-x---------3-3-x-------3-3-x-------------------------|

      (D)Pray for a  (A)peaceful   (G)year
e|----2-2-x----------0-0-x---------3-3-x-------3-3-x-------------------------|
B|----3-3-x----------2-2-x---------3-3-x-------2-3-x-------------------------|
G|----2-2-x----------2-2-x---------0-0-x-------0-0-x-------------------------|
D|----0-0-x----------2-2-x---------0-0-x-------0-0-x-------------------------|
A|----x-x-x----------0-0-x---------2-2-x-------2-2-x-------------------------|
E|----x-x-x----------x-x-x---------3-3-x-------3-3-x-------------------------|

      (D) Lots of     (D/F#)love Happy (G)Holidays
e|----2-2-x------------2-2-x-----------3-3-x---------------------------------|
B|----3-3-x------------3-3-x-----------3-3-x---------------------------------|
G|----2-2-x------------2-2-x-----------0-0-x---------------------------------|
D|----0-0-x------------0-0-x-----------0-0-x---------------------------------|
A|----x-x-x------------0-0-x-----------2-2-x---------------------------------|
E|----x-x-x------------2-2-x-----------3-3-x---------------------------------|

        (D/F#)to (Em)you From (A)Blue Chair (D)Bay, 
e|-------2-----0-0-x----------0-0-x------------2-2--x-----------2-2-x-------|
B|-------3-----0-0-x----------2-2-x------------3-3--x-----------3-3-x-------|
G|-------2-----0-0-x----------2-2-x------------2-2--x-----------2-2-x-------|
D|-------0-----2-2-x----------2-2-x------------0-0--x-----------0-0-x-------|
A|-------0-----2-2-x----------0-0-x------------x-x--x-----------x-x-x-------|
E|-------2-----0-0-x----------0-0-x------------x-x--x-----------x-x-x-------|

   (D/F#)Merry (G)Christmas from(A)Blue Chair Bay(D)
e|-------2-----3-3-x----------0-0-x------------2-2--x-----------2-2-x-------|
B|-------3-----3-3-x----------2-2-x------------3-3--x-----------3-3-x-------|
G|-------2-----0-0-x----------2-2-x------------2-2--x-----------2-2-x-------|
D|-------0-----0-0-x----------2-2-x------------0-0--x-----------0-0-x-------|
A|-------0-----2-2-x----------0-0-x------------x-x--x-----------x-x-x-------|
E|-------2-----3-3-x----------0-0-x------------x-x--x-----------x-x-x-------|

La-la, (D)la-la-la, (A)la-la-la, (G)la
e|----2-2-x----------0-0-x---------3-3-x-------3-3-x-------------------------|
B|----3-3-x----------2-2-x---------3-3-x-------2-3-x-------------------------|
G|----2-2-x----------2-2-x---------0-0-x-------0-0-x-------------------------|
D|----0-0-x----------2-2-x---------0-0-x-------0-0-x-------------------------|
A|----x-x-x----------0-0-x---------2-2-x-------2-2-x-------------------------|
E|----x-x-x----------x-x-x---------3-3-x-------3-3-x-------------------------|

      (D)La-la-la,  (A)la-la-la,   (G)la
e|----2-2-x----------0-0-x---------3-3-x-------3-3-x-------------------------|
B|----3-3-x----------2-2-x---------3-3-x-------2-3-x-------------------------|
G|----2-2-x----------2-2-x---------0-0-x-------0-0-x-------------------------|
D|----0-0-x----------2-2-x---------0-0-x-------0-0-x-------------------------|
A|----x-x-x----------0-0-x---------2-2-x-------2-2-x-------------------------|
E|----x-x-x----------x-x-x---------3-3-x-------3-3-x-------------------------|

       (D) Lots of    (D/F#)love Happy (G)Holidays 
e|----2-2-x------------2-2-x-----------3-3-x---------------------------------|
B|----3-3-x------------3-3-x-----------3-3-x---------------------------------|
G|----2-2-x------------2-2-x-----------0-0-x---------------------------------|
D|----0-0-x------------0-0-x-----------0-0-x---------------------------------|
A|----x-x-x------------0-0-x-----------2-2-x---------------------------------|
E|----x-x-x------------2-2-x-----------3-3-x---------------------------------|

    (D/F#)to you (Em)From Blue (A) Chair Bay, (D)
e|-------2-----0-0-x----------0-0-x------------2-2--x-----------2-2-x-------|
B|-------3-----0-0-x----------2-2-x------------3-3--x-----------3-3-x-------|
G|-------2-----0-0-x----------2-2-x------------2-2--x-----------2-2-x-------|
D|-------0-----2-2-x----------2-2-x------------0-0--x-----------0-0-x-------|
A|-------0-----2-2-x----------0-0-x------------x-x--x-----------x-x-x-------|
E|-------2-----0-0-x----------0-0-x------------x-x--x-----------x-x-x-------|

 
   (D/F#)Merry (G)Christmas from(A) Blue Chair (D)Bay 
e|-------2------3---------------0--------------2-----------------------|
B|-------3------3---------------2--------------3-----------------------|
G|-------2------0---------------2--------------2-----------------------|
D|-------0------0---------------2--------------0-----------------------|
A|-------0------2---------------0--------------x-----------------------|
E|-------2------3---------------0--------------x-----------------------|

Outro: 

D A G
D A G 
D D/F# G
D/F# Em A D

4 times 


************************************

| /   slide up
| \   slide down
| h   hammer-on
| p   pull-off
| ~   vibrato
| +   harmonic
| x   Mute note
| b   Bend
| pb  Pre-bend
| br  Bend release
| pbr Pre-bend release
| brb Bend release bend

************************************

            
            
Suggest correction
Creating personal tab
Creating personal tab
You can edit any tab online and save it as your Personal.

You can edit, replace or remove any tab part or add personal notes – all changes will be seen only by you.

Personal tabs can be accessed anytime from any device, even offline.
Learn more »
Give kudos to tab author, rate the tab!
1 2 3 4 5
comments
print report bad tab
guest
You may want to rate the tab now too:
select rating
Wanna post a correction for this tab? Suggest correction