Oops, an error
Loading. Please wait.

Drink It Up chords

1,828 views 1 this week
no commentswrite comment
1 2 3 4 5
2 more votes to show rating
add to favorites
×
Save as Personal and add changes to this tab that will be seen only by you. Learn more ›
×
You can save this tab as Personal to edit and correct it or add notes. All changes will be seen only by you. Learn more »
launch autoscroll
font size
0
reset
transpose
0
reset
display chords
guitar tuner
edit
Autoscroll
slow
fast
+/-
esc
set tempo
stop
Strumming
There is no strumming pattern for this song yet. and get +5 IQ
DRINK IT UP

e|--------------------------------------------------------------|
B|--------------------------------------------------------------|
G|--7-9-9-7-9-7-9-7--7-9-7--7-9--12--12--11--11---7-9-9--7-9-9--|
D|--0-0-0-0-0-0-0-0--0-0-0--0-0---0---0---0---0---0-0-0--0-0-0--|
A|--------------------------------------------------------------|
E|--------------------------------------------------------------|

A  D  G D G 

A             D     A
Drink it up, don't waste a drop
A                           D
Squeeze every second out of that old clock
A
Kick it back, man, enjoy the ride
D                A
Keep livin' everyday like it's Saturday night

G                D       A              
Cuz you only get so much lighting in the bottle
A    G       D                A
Only so many times you get to feel like this
A            D                                A
Light it up, burn it down, that's what life's all about
        G                             D
And you can't just take a little sip, fill your cup, drink it up
A               G  D
Ah drink it up

e|--------------------------------------------------------------|
B|--------------------------------------------------------------|
G|--7-9-9-7-9-7-9-7--7-9-7--7-9--12--12--11--11---7-9-9--7-9-9--|
D|--0-0-0-0-0-0-0-0--0-0-0--0-0---0---0---0---0---0-0-0--0-0-0--|
A|--------------------------------------------------------------|
E|--------------------------------------------------------------|


A      D    A
Let it roll let the big wheels turns
Swing a lil gravel goin' through those turns
You and me, we gotta soak it in
G                D                       A
Keep it plankin' like this party's gonna never end


G                D       A              
Cuz you only get so much lighting in the bottle
A    G       D                A
Only so many times you get to feel like this
A            D                                A
Light it up, burn it down, that's what life's all about
        G                             D
And you can't just take a little sip, fill your cup, drink it up
A               G  D    A  G  D  A  G  D  A
Ah drink it up

G                     D
Get it while you can, take it to the limit
G                     D
Live out every single minute while you're in it

G                D       A              
Cuz you only get so much lighting in the bottle
A    G       D                A
Only so many times you get to feel like this
A            D                                A
Light it up, burn it down, that's what life's all about
        G                             D
And you can't just take a little sip, fill your cup, drink it up


G                D       A              
Cuz you only get so much lighting in the bottle
A    G       D                A
Only so many times you get to feel like this
A            D                                A
Light it up, burn it down, that's what life's all about
        G                             D
And you can't just take a little sip, fill your cup, drink it up
A               D  A                        D   G   D   A
Ah drink it up     Come on and drink it up

e|--------------------------------------------------------------|
B|--------------------------------------------------------------|
G|--7-9-9-7-9-7-9-7--7-9-7--7-9--12--12--11--11---7-9-9--7-9-9--|
D|--0-0-0-0-0-0-0-0--0-0-0--0-0---0---0---0---0---0-0-0--0-0-0--|
A|--------------------------------------------------------------|
E|--------------------------------------------------------------|

            
            
Suggest correction
Creating personal tab
Creating personal tab
You can edit any tab online and save it as your Personal.

You can edit, replace or remove any tab part or add personal notes – all changes will be seen only by you.

Personal tabs can be accessed anytime from any device, even offline.
Learn more »
Give kudos to tab author, rate the tab!
1 2 3 4 5
comments
print report bad tab
guest
You may want to rate the tab now too:
select rating
Wanna post a correction for this tab? Suggest correction