Oops, an error
Loading. Please wait.

Never Wanted Nothing More solo tab

5,308 views 9 this week
2 commentsread comments
1 2 3 4 5
1 last vote to show rating
add to favorites
×
Save as Personal and add changes to this tab that will be seen only by you. Learn more ›
×
You can save this tab as Personal to edit and correct it or add notes. All changes will be seen only by you. Learn more »
launch autoscroll
font size
0
reset
how to read this tab
guitar tuner
edit
Autoscroll
slow
fast
+/-
esc
set tempo
stop
Author
Difficulty
this is part of the acoustic solo.. if anyone can help me to correct it, or add
to it, please do so. you can email me at aaalelievre@hotmail.com


--------------------------------------------------------------------------------------3
----------------------------------------------8---------------------------------------3
-------------7-7h9p7-----------------------------9-7---9v-7---------------------------0
------5h7s9-----------9-7-5-------5h7--9-9-7---------9-------9-7-5--------------------0
--5h7-------------------------5h7----------------------------------7-5-5h7p5--2-0-----2
-----------------------------------------------------------------------------------3--3

h- hammer on
p- pull off
v- vibrato (or light bend)


well thats the acoustic one.. if anyone knows the electric one, please post it!
God Bless all

-Alec

            
            
Suggest correction
Creating personal tab
Creating personal tab
You can edit any tab online and save it as your Personal.

You can edit, replace or remove any tab part or add personal notes – all changes will be seen only by you.

Personal tabs can be accessed anytime from any device, even offline.
Learn more »
Give kudos to tab author, rate the tab!
1 2 3 4 5
comments
print report bad tab
2 comments total.
-1 reply
Gable_Brandon 242 Jan 20, 2009 11:10 AM

Not right. Wrong scale used

-1 reply
Gable_Brandon 242 Dec 09, 2009 09:15 AM

Try this:

E|--------------------|
B|---------3-5-3-0----|
G|----0-2/4-4-----0---|
D|-0h2-0--------------|
A|--------------------|
E|--------------------|

then I lose it for a second, then:
E|-----------3-0-----0------------------------------------------3---3-|
B|---------------3-0---3-0--------------------------------------3---3-|
G|----0-2~2~----------------2b2r-0---0------0-------------------0---0-|
D|-0h2-0---------------------------2---2-0----2-0---0-----------------|
A|-----------------------------------------2------2---2-1-0-----------|
E|----------------------------------------------------------3-----3---|

something like that..

guest
You may want to rate the tab now too:
select rating
Wanna post a correction for this tab? Suggest correction