Oops, an error
Loading. Please wait.

What I Need To Do tab

2,201 views 1 this week
no commentswrite comment
1 2 3 4 5
2 more votes to show rating
add to favorites
×
Save as Personal and add changes to this tab that will be seen only by you. Learn more ›
×
You can save this tab as Personal to edit and correct it or add notes. All changes will be seen only by you. Learn more »
launch autoscroll
font size
0
reset
how to read this tab
guitar tuner
edit
Autoscroll
slow
fast
+/-
esc
set tempo
stop
Author
-------------------------------------------------------------------------------
                             What I need to do-Kenny Chesney
-------------------------------------------------------------------------------
Tabbed by:dwarfcar21
Email:wally_kai_harper@yahoo.com

Tuning:standard

This song is all ear transcribed watch the criticism..GOOD LUCK AND ENJOY!:)

Intro:NO GUITAR

Verse 1:play how many ever times.
Acoustic

e|---3-3-x-3-------------------------|
B|---0-0-x-0-------------------------|
G|---0-0-x-0-------------------------|
D|---0-0-x-0-------------------------|
A|---2-2-x-2-------------------------|
E|---3-3-x-3-------------------------|

Guitar 2: electric.plays toward end of verse.

e|----1------------|
B|-----1-----------|
G|--3--------------|
D|-----------------|
A|-----------------|
E|-----------------|

Chorus:play as many times as needed.

Acoustic

e|---3-3-x-3-------------------------|
B|---0-0-x-0-------------------------|
G|---0-0-x-0------3b-----------------|
D|---0-0-x-0-------------------------|
A|---2-2-x-2-------------------------|
E|---3-3-x-3-------------------------|

Verse:play how many ever times.
Acoustic

e|---3-3-x-3-------------------------|
B|---0-0-x-0-------------------------|
G|---0-0-x-0-------------------------|
D|---0-0-x-0-------------------------|
A|---2-2-x-2-------------------------|
E|---3-3-x-3-------------------------|

Guitar 2:electric.palm muted.play as many times as necessary. 

e|---------------------------------------------|
B|---------------------------------------------|
G|---------------------------------------------|
D|---------------------------------------------|
A|------12-12-12-------12-12-12----------------|
E|---------------------------------------------|

Guitar 2: electric.plays toward end of verse.

e|----1------------|
B|-----1-----------|
G|--3-------7-5-3--|
D|-----------------|
A|-----------------|
E|-----------------|

Verse:play how many ever times.
Acoustic

e|---3-3-x-3-------------------------|
B|---0-0-x-0-------------------------|
G|---0-0-x-0-------------------------|
D|---0-0-x-0-------------------------|
A|---2-2-x-2-------------------------|
E|---3-3-x-3-------------------------|
Guitar 2:electric

e|------17----15------------/22b-------22br-17br-15br------------------------|
B|---------------------------------------------------------------------------|
G|---------------------------------------------------------------------------|
D|---------------------------------------------------------------------------|
A|---------------------------------------------------------------------------|
E|---------------------------------------------------------------------------|

Acoustic


e|---3-3-x-3-------------------------|
B|---0-0-x-0-------------------------|
G|---0-0-x-0-------------------------|
D|---0-0-x-0-------------------------|
A|---2-2-x-2-------------------------|
E|---3-3-x-3-------------------------|

Ending:electric.palm mute

e|------------------------------------------------------------------------|
B|----------------------------13p12-9-------------------------------------|
G|------------------------------------------------------------------------|
D|------------------------------------------------------------------------|
A|----7-7-7p5-3-----------------------------------------------------------|
E|------------------------------------------------------------------------|


| br bend release
| b  bend
| /  slide up
| \  slide down
| h  hammer-on
| p  pull-off
| ~  vibrato
| +  harmonic
| x  Mute note
===============================================================================

            
            
Suggest correction
Creating personal tab
Creating personal tab
You can edit any tab online and save it as your Personal.

You can edit, replace or remove any tab part or add personal notes – all changes will be seen only by you.

Personal tabs can be accessed anytime from any device, even offline.
Learn more »
Give kudos to tab author, rate the tab!
1 2 3 4 5
comments
print report bad tab
guest
You may want to rate the tab now too:
select rating
Wanna post a correction for this tab? Suggest correction