Oops, an error
Loading. Please wait.

Born With A Broken Heart tab

version 2
version 2

Whole song

Interactive

5,830 views 1 this week
1 commentread comment
1 2 3 4 5
x 4
add to favorites
×
Save as Personal and add changes to this tab that will be seen only by you. Learn more ›
×
You can save this tab as Personal to edit and correct it or add notes. All changes will be seen only by you. Learn more »
launch autoscroll
font size
0
reset
how to read this tab
guitar tuner
edit
Autoscroll
slow
fast
+/-
esc
set tempo
stop
Author
-------------------------------------------------------------------------------
             Born With a Broken Heart-Kenny Wayne Shepherd
-------------------------------------------------------------------------------
Tabbed by:Workin man
Email:kmsmee2006@comcast.net

Tuning:E-A-D-G-B-e
Intro:
The Riff:
e|------------7--7--------------7--7---------------7--7--------------7--7----|
B|------------7--7--------------7--7---------------7--7--------------7--7----|
G|------------7--7--------------7--7---------------7--7--------------7--7----|
D|------------6--6--------------6--6---------------6--6--------------6--6----|
A|------0-----7--7--------0-----7--7---------0-----7--7--------0-----7--7----|
E|0--3--------------0--3---------------0--3--------------0--3----------------|

e|------------10--10------------10--10--------------7--7--------------7--7---|
B|------------10--10------------10--10--------------7--7--------------7--7---|
G|-------------9---9-------------9---9--------------7--7--------------7--7---|
D|------0-----10--10--------0---10--10--------------6--6--------------6--6---|
A|0--3--------8----8--0--3-----8-----8--------0-----7--7--------0-----7--7---|
E|--------------------------------------0--3--------------0--3---------------|

e|------------------------------------7--7-----------------------------------|
B|------------------------------------7--7-----------------------------------|
G|------------------------------------7--7-----------------------------------|
D|2-2-2-2-2-2-2-2-2-2-----------------6--6-----------------------------------|
A|2-2-2-2-2-2-2-2-2-2-----------0--0--7--7-----------------------------------|
E|0-0-0-0-0-0-0-0-0-0--2--3--4-----------------------------------------------|

That's the Riff that is used for all of the song that isn't a solo. The only addition to
is at the end of the verses:

e|------------7--7-------------------------------------------7--7------------|
B|------------7--7-------------------------------------------7--7------------|
G|------------7--7-----------------------------7--5--4--2-2--7--7------------|
D|------------6--6--------2-2-2-2-2-2-2-2-2-2--7--5--4--2-2--6--6------------|
A|------0-----7--7--------2-2-2-2-2-2-2-2-2-2--5--3--2--0-0--7--7--------0---|
E|0--3--------------0--3--0-0-0-0-0-0-0-0-0-0----------------------0--3------|

e|---------------------------------------------------------------------------|
B|---------------------------------------------------------------------------|
G|---------------------------------------------------------------------------|
D|---------------------------------------------------------------------------|
A|---------------------------------------------------------------------------|
E|---------------------------------------------------------------------------|

I personaly suggest comming up with your own solo for this one. There is no way anyone
learn this solo note for note and play it with all the fire and conviction of Kenny
Better to passionately play your own crud than soullessly play someone else's.

Revised: Jan 25, 2007

Found a few errors and a chord that sound closer to the real thing. I would like to 
the person whom inspired this revison by saying the entire tab is wrong. Constuctive 
folks.

If you want to contact me, drop by my myspace:

http://www.myspace.com/workinman1
Constructive criticism is welcome and taken into account. Or if you just want to say hi 
whatever drop on by.

            
            
Suggest correction
Creating personal tab
Creating personal tab
You can edit any tab online and save it as your Personal.

You can edit, replace or remove any tab part or add personal notes – all changes will be seen only by you.

Personal tabs can be accessed anytime from any device, even offline.
Learn more »
comments
print report bad tab
1 comment total.
0 reply
juicehead2004 10 Jan 21, 2007 08:42 PM

Tab is completely wrong!!

guest
You may want to rate the tab now too:
select rating
Wanna post a correction for this tab? Suggest correction