Oops, an error
Loading. Please wait.

Things She Said bass

version 1
version 1

Whole song

Interactive

by Kent
99 views 1 this week
no commentswrite comment
1 2 3 4 5
3 more votes to show rating
add to favorites
×
Save as Personal and add changes to this tab that will be seen only by you. Learn more ›
×
You can save this tab as Personal to edit and correct it or add notes. All changes will be seen only by you. Learn more »
launch autoscroll
font size
0
reset
guitar tuner
edit
Autoscroll
slow
fast
+/-
esc
set tempo
stop
Author
Difficulty
-------------------------------------------------------------------------------
                  Things She Said (Saker man ser) - Kent
-------------------------------------------------------------------------------
Tabbed by: Isabella
E-mail: isa_cntdr@hotmail.com

Tuning: standard

Please note: this is not how the song is originally played, not at all. This is simply a
fun way I found to play while we were just messing around during band practice. It
sounds good if you have to improvise or just follow a guitar, though. Thought I'd submit 
it because there is nothing else anywhere. Thank you.


Intro (0:24)
G|-------------------------------------------------|
D|------------------------3--3-33-3--3--3-33-3-----|
A|--3--3-33-3--------------------------------------|
E|-------------5--5-55-5---------------------------| X2

Verse
G|---------------------------------------------------------------------------|
D|---------------------------------------------------------------------------|
A|--3--33-3--------------------------------3--33-3--------5--5-55-5-5\3------|
E|----------5--55--1--1-11-1-1--1-11-1-1-----------5--55----------------3/7--|

Chorus
G|----------------------------------------------------------------------|
D|----------------------3-33--------------------------------------------|
A|-333-33-5-5-55-3-33-3------1--11-1-5-55--3-33-1-1-11-11-1-1-11-1------|
E|----------------------------------------------------------------------|

Verse
G|---------------------------------------------------------------------------|
D|---------------------------------------------------------------------------|
A|--3--33-3--------------------------------3--33-3--------5--5-55-5-5\3------|
E|----------5--55--1--1-11-1-1--1-11-1-1-----------5--55----------------3/7--|

Chorus
G|----------------------------------------------------------------------|
D|----------------------3-33--------------------------------------------|
A|-333-33-5-5-55-3-33-3------1--11-1-5-55--3-33-1-1-11-11-1-1-11-1------|
E|----------------------------------------------------------------------|

"The little things..."
G|----------------------------------------------------------------------------------------|
D|----------------------------------------------------------------------------------------|
A|--------------------3-33-3-33--------------3-33-3-33--------------3-33-3-33-------------|
E|-1-11--5-5-3-31-111-----------5-5-3-31-111-----------5-5-3-31-111----------5-5-3-31-111-|

Solo
G|-----------------------------------------------------------|
D|-----------------------------------------------------------|
A|---------------5--5-5-55-5-5-------------------------------|
E|-3--3-3-33-3-3---------------5--5-5-55-5-5--3--3-3-33-3-3--|

G|-----------------------------------------------------------|
D|-----------------------------3--3-3-33-3-3--333333333333~--|
A|---------------5--5-5-55-5-5-------------------------------|
E|-3--3-3-33-3-3---------------------------------------------|

G|---------------------------------------------------------|
D|---------------------------------------------------------|
A|-3-3-3-33-3----------------------------------------------|
E|------------5-5-5-55-5-1-1-1-11-1-1-1-1-11-1-------------|

"The little things..."
G|----------------------------------------------------------------------------------------|
D|----------------------------------------------------------------------------------------|
A|--------------------3-33-3-33--------------3-33-3-33--------------3-33-3-33-------------|
E|-1-11--5-5-3-31-111-----------5-5-3-31-111-----------5-5-3-31-111----------5-5-3-31-111-|

G|------------------|
D|------------------|
A|------------------|
E|-1-1-111-1-11-1-1-|

End on
G|-----|
D|-----|
A|--3~-|
E|-----|

            
            
Suggest correction
Creating personal tab
Creating personal tab
You can edit any tab online and save it as your Personal.

You can edit, replace or remove any tab part or add personal notes – all changes will be seen only by you.

Personal tabs can be accessed anytime from any device, even offline.
Learn more »
Give kudos to tab author, rate the tab!
1 2 3 4 5
comments
print report bad tab
guest
You may want to rate the tab now too:
select rating
Wanna post a correction for this tab? Suggest correction