Oops, an error
Loading. Please wait.

Blossom tab

by Kerli
49 views 3 this week
no commentswrite comment
1 2 3 4 5
3 more votes to show rating
add to favorites
×
Save as Personal and add changes to this tab that will be seen only by you. Learn more ›
×
You can save this tab as Personal to edit and correct it or add notes. All changes will be seen only by you. Learn more »
launch autoscroll
font size
0
reset
how to read this tab
guitar tuner
edit
Autoscroll
slow
fast
+/-
esc
set tempo
stop
[Intro]
e|-------------------|-------------------|-------------------|-------------------|
B|-------------------|-------------------|-------------------|-------------------|
G|-------------------|-------------------|-------------------|-------------------|
D|---------------11--|---------------11--|---------------11--|---------------11--|
A|-----------11------|-----------11------|-----------11------|-----------11------|
E|-------9-----------|---9---9-----------|---9---9-----------|---9---9-----------|

e|-------------------|-------------------|-------------------|-------------------|
B|-------------------|-------------------|-------------------|-------------------|
G|-------------------|-------------------|-------------------|-------------------|
D|---------------11--|---------------11--|---------------11--|---------------11--|
A|-----------11------|-----------11------|-----------11------|-----------11------|
E|---9---9-----------|---9---9-----------|---9---9-----------|---9---9-----------|

----------------------------------------------------------------------------------

[Verse]
e|-------------------|-------------------|-------------------|-------------------|
B|-------------------|-------------------|-------------------|-------------------|
G|-------------------|-------------------|-------------------|-------------------|
D|---------------11--|---------------11--|---------------11--|---------------11--|
A|-----------11------|-----------11------|-----------11------|-----------11------|
E|-------9-----------|---9---9-----------|---9---9-----------|---9---9-----------|

e|-------------------|-------------------|-------------------|-------------------|
B|-------------------|-------------------|-------------------|-------------------|
G|-------------------|-------------------|-------------------|-------------------|
D|-----------11------|-----------11------|-----------11------|-----------11------|
A|---------------9---|---------------9---|---------------9---|---------------9---|
E|---9---7-----------|---7---7-----------|---7---7-----------|---7---7-----------|

e|-------------------|-------------------|-------------------|-------------------|
B|-------------------|-------------------|-------------------|-------------------|
G|---------------6---|---------------6---|---------------6---|---------------6---|
D|-----------6-------|-----------6-------|-----------6-------|-----------6-------|
A|-------------------|-------------------|-------------------|-------------------|
E|---7---6-----------|---6---6-----------|---6---6-----------|---6---6-----------|

e|-------------------|-------------------|-------------------|-------------------|
B|-------------------|-------------------|-------------------|-------------------|
G|-------------------|-------------------|-------------------|-------------------|
D|-----------11------|-----------11------|-----------11------|-----------11------|
A|---------------9---|---------------9---|---------------9---|---------------9---|
E|---6---7-----------|---7---7-----------|---7---7-----------|---7---7-----------|

----------------------------------------------------------------------------------

[Pre-Chorus]
e|-------------------|-------------------|-------------------|-------------------|
B|-------------------|-------------------|-------------------|-------------------|
G|-------------------|-------------------|-------------------|-------------------|
D|---------------11--|---------------13--|---------------11--|---------------13--|
A|-----------11------|-----------11------|-----------11------|-----------11------|
E|-------9-----------|---9---9-----------|---9---9-----------|---9---9-----------|

e|-------------------|-------------------|-------------------|-------------------|
B|-------------------|-------------------|-------------------|-------------------|
G|-------------------|-------------------|-------------------|-------------------|
D|-----------11------|-----------11------|-----------11------|-----------11------|
A|---------------9---|---------------9---|---------------9---|---------------9---|
E|---9---7-----------|---7---7-----------|---7---7-----------|---7---7-----------|

e|-------------------|-------------------|-------------------|-------------------|
B|-------------------|-------------------|-------------------|-------------------|
G|---------------6---|---------------8---|---------------6---|---------------8---|
D|-----------6-------|-----------6-------|-----------6-------|-----------6-------|
A|-------------------|-------------------|-------------------|-------------------|
E|---7---6-----------|---6---6-----------|---6---6-----------|---6---6-----------|

e|-------------------|-------------------|-------------------|-------------------|
B|-------------------|-------------------|-------------------|-------------------|
G|-------------------|-------------------|-------------------|-----------9-------|
D|-----------11------|-----------11------|-----------11------|-------------------|
A|---------------9---|---------------9---|---------------9---|---------------9---|
E|---6---7-----------|---7---7-----------|---7---7-----------|---7---7-----------|

x2

----------------------------------------------------------------------------------

[Chorus]
e|-------------------|-------------------|-------------------|-------------------|
B|-------------------|-------------------|-------------------|-------------------|
G|-------------------|-------------------|-------------------|-------------------|
D|---------------11--|---------------11--|---------------11--|---------------11--|
A|-----------11------|-----------11------|-----------11------|-----------11------|
E|-------9-----------|---9---9-----------|---9---9-----------|---9---9-----------|

e|-------------------|-------------------|-------------------|-------------------|
B|-------------------|-------------------|-------------------|-------------------|
G|-------------------|-------------------|-------------------|-------------------|
D|-----------11------|-----------11------|-----------11------|-----------11------|
A|---------------9---|---------------9---|---------------9---|---------------9---|
E|---9---7-----------|---7---7-----------|---7---7-----------|---7---7-----------|

e|-------------------|-------------------|-------------------|-------------------|
B|-------------------|-------------------|-------------------|-------------------|
G|---------------6---|---------------6---|---------------6---|---------------6---|
D|-----------6-------|-----------6-------|-----------6-------|-----------6-------|
A|-------------------|-------------------|-------------------|-------------------|
E|---7---6-----------|---6---6-----------|---6---6-----------|---6---6-----------|

e|-------------------|-------------------|-------------------|-------------------|
B|-------------------|-------------------|-------------------|-------------------|
G|-------------------|-------------------|-------------------|-------------------|
D|-----------11------|-----------11------|-----------11------|-----------11------|
A|---------------9---|---------------9---|---------------9---|---------------9---|
E|---6---7-----------|---7---7-----------|---7---7-----------|---7---7-----------|

e|-------------------|-------------------|-------------------|-------------------|
B|-------------------|-------------------|-------------------|-------------------|
G|-------------------|-------------------|-------------------|-------------------|
D|---------------11--|---------------13--|---------------11--|---------------13--|
A|-----------11------|-----------11------|-----------11------|-----------11------|
E|-------9-----------|---9---9-----------|---9---9-----------|---9---9-----------|

e|-------------------|-------------------|-------------------|-------------------|
B|-------------------|-------------------|-------------------|-------------------|
G|-------------------|-------------------|-------------------|-------------------|
D|-----------11------|-----------11------|-----------11------|-----------11------|
A|---------------9---|---------------9---|---------------9---|---------------9---|
E|---9---7-----------|---7---7-----------|---7---7-----------|---7---7-----------|

e|-------------------|-------------------|-------------------|-------------------|
B|-------------------|-------------------|-------------------|-------------------|
G|---------------6---|---------------8---|---------------6---|---------------8---|
D|-----------6-------|-----------6-------|-----------6-------|-----------6-------|
A|-------------------|-------------------|-------------------|-------------------|
E|---7---6-----------|---6---6-----------|---6---6-----------|---6---6-----------|

e|-------------------|-------------------|-------------------|-------------------|
B|-------------------|-------------------|-------------------|-------------------|
G|-------------------|-------------------|-------------------|-----------9-------|
D|-----------11------|-----------11------|-----------11------|-------------------|
A|---------------9---|---------------9---|---------------9---|---------------9---|
E|---6---7-----------|---7---7-----------|---7---7-----------|---7---7-----------|

----------------------------------------------------------------------------------

[Verse]
e|-------------------|-------------------|-------------------|-------------------|
B|-------------------|-------------------|-------------------|-------------------|
G|-------------------|-------------------|-------------------|-------------------|
D|---------------11--|---------------11--|---------------11--|---------------11--|
A|-----------11------|-----------11------|-----------11------|-----------11------|
E|-------9-----------|---9---9-----------|---9---9-----------|---9---9-----------|

e|-------------------|-------------------|-------------------|-------------------|
B|-------------------|-------------------|-------------------|-------------------|
G|-------------------|-------------------|-------------------|-------------------|
D|-----------11------|-----------11------|-----------11------|-----------11------|
A|---------------9---|---------------9---|---------------9---|---------------9---|
E|---9---7-----------|---7---7-----------|---7---7-----------|---7---7-----------|

e|-------------------|-------------------|-------------------|-------------------|
B|-------------------|-------------------|-------------------|-------------------|
G|---------------6---|---------------6---|---------------6---|---------------6---|
D|-----------6-------|-----------6-------|-----------6-------|-----------6-------|
A|-------------------|-------------------|-------------------|-------------------|
E|---7---6-----------|---6---6-----------|---6---6-----------|---6---6-----------|

e|-------------------|-------------------|-------------------|-------------------|
B|-------------------|-------------------|-------------------|-------------------|
G|-------------------|-------------------|-------------------|-------------------|
D|-----------11------|-----------11------|-----------11------|-----------11------|
A|---------------9---|---------------9---|---------------9---|---------------9---|
E|---6---7-----------|---7---7-----------|---7---7-----------|---7---7-----------|

----------------------------------------------------------------------------------

[Pre-Chorus]
e|-------------------|-------------------|-------------------|-------------------|
B|-------------------|-------------------|-------------------|-------------------|
G|-------------------|-------------------|-------------------|-------------------|
D|---------------11--|---------------13--|---------------11--|---------------13--|
A|-----------11------|-----------11------|-----------11------|-----------11------|
E|-------9-----------|---9---9-----------|---9---9-----------|---9---9-----------|

e|-------------------|-------------------|-------------------|-------------------|
B|-------------------|-------------------|-------------------|-------------------|
G|-------------------|-------------------|-------------------|-------------------|
D|-----------11------|-----------11------|-----------11------|-----------11------|
A|---------------9---|---------------9---|---------------9---|---------------9---|
E|---9---7-----------|---7---7-----------|---7---7-----------|---7---7-----------|

e|-------------------|-------------------|-------------------|-------------------|
B|-------------------|-------------------|-------------------|-------------------|
G|---------------6---|---------------8---|---------------6---|---------------8---|
D|-----------6-------|-----------6-------|-----------6-------|-----------6-------|
A|-------------------|-------------------|-------------------|-------------------|
E|---7---6-----------|---6---6-----------|---6---6-----------|---6---6-----------|

e|-------------------|-------------------|-------------------|-------------------|
B|-------------------|-------------------|-------------------|-------------------|
G|-------------------|-------------------|-------------------|-----------9-------|
D|-----------11------|-----------11------|-----------11------|-------------------|
A|---------------9---|---------------9---|---------------9---|---------------9---|
E|---6---7-----------|---7---7-----------|---7---7-----------|---7---7-----------|

x2

----------------------------------------------------------------------------------

[Chorus]
e|-------------------|-------------------|-------------------|-------------------|
B|-------------------|-------------------|-------------------|-------------------|
G|-------------------|-------------------|-------------------|-------------------|
D|---------------11--|---------------11--|---------------11--|---------------11--|
A|-----------11------|-----------11------|-----------11------|-----------11------|
E|-------9-----------|---9---9-----------|---9---9-----------|---9---9-----------|

e|-------------------|-------------------|-------------------|-------------------|
B|-------------------|-------------------|-------------------|-------------------|
G|-------------------|-------------------|-------------------|-------------------|
D|-----------11------|-----------11------|-----------11------|-----------11------|
A|---------------9---|---------------9---|---------------9---|---------------9---|
E|---9---7-----------|---7---7-----------|---7---7-----------|---7---7-----------|

e|-------------------|-------------------|-------------------|-------------------|
B|-------------------|-------------------|-------------------|-------------------|
G|---------------6---|---------------6---|---------------6---|---------------6---|
D|-----------6-------|-----------6-------|-----------6-------|-----------6-------|
A|-------------------|-------------------|-------------------|-------------------|
E|---7---6-----------|---6---6-----------|---6---6-----------|---6---6-----------|

e|-------------------|-------------------|-------------------|-------------------|
B|-------------------|-------------------|-------------------|-------------------|
G|-------------------|-------------------|-------------------|-------------------|
D|-----------11------|-----------11------|-----------11------|-----------11------|
A|---------------9---|---------------9---|---------------9---|---------------9---|
E|---6---7-----------|---7---7-----------|---7---7-----------|---7---7-----------|

e|-------------------|-------------------|-------------------|-------------------|
B|-------------------|-------------------|-------------------|-------------------|
G|-------------------|-------------------|-------------------|-------------------|
D|---------------11--|---------------13--|---------------11--|---------------13--|
A|-----------11------|-----------11------|-----------11------|-----------11------|
E|-------9-----------|---9---9-----------|---9---9-----------|---9---9-----------|

e|-------------------|-------------------|-------------------|-------------------|
B|-------------------|-------------------|-------------------|-------------------|
G|-------------------|-------------------|-------------------|-------------------|
D|-----------11------|-----------11------|-----------11------|-----------11------|
A|---------------9---|---------------9---|---------------9---|---------------9---|
E|---9---7-----------|---7---7-----------|---7---7-----------|---7---7-----------|

e|-------------------|-------------------|-------------------|-------------------|
B|-------------------|-------------------|-------------------|-------------------|
G|---------------6---|---------------8---|---------------6---|---------------8---|
D|-----------6-------|-----------6-------|-----------6-------|-----------6-------|
A|-------------------|-------------------|-------------------|-------------------|
E|---7---6-----------|---6---6-----------|---6---6-----------|---6---6-----------|

e|-------------------|-------------------|-------------------|-------------------|
B|-------------------|-------------------|-------------------|-------------------|
G|-------------------|-------------------|-------------------|-----------9-------|
D|-----------11------|-----------11------|-----------11------|-------------------|
A|---------------9---|---------------9---|---------------9---|---------------9---|
E|---6---7-----------|---7---7-----------|---7---7-----------|---7---7-----------|

----------------------------------------------------------------------------------

[Interlude]
e|-------------------|-------------------|-------------------|-------------------|
B|-------------------|-------------------|-------------------|-------------------|
G|-------------------|-------------------|-------------------|-------------------|
D|---------------11--|---------------11--|---------------11--|---------------11--|
A|-----------11------|-----------11------|-----------11------|-----------11------|
E|-------9-----------|---9---9-----------|---9---9-----------|---9---9-----------|

e|-------------------|-------------------|-------------------|-------------------|
B|-------------------|-------------------|-------------------|-------------------|
G|-------------------|-------------------|-------------------|-------------------|
D|---------------11--|---------------11--|---------------11--|---------------11--|
A|-----------11------|-----------11------|-----------11------|-----------11------|
E|---9---9-----------|---9---9-----------|---9---9-----------|---9---9-----------|

----------------------------------------------------------------------------------

[Outro]
e|-------------------|-------------------|-------------------|-------------------|
B|-------------------|-------------------|-------------------|-------------------|
G|-------------------|-------------------|-------------------|-------------------|
D|---------------11--|---------------11--|---------------11--|---------------11--|
A|-----------11------|-----------11------|-----------11------|-----------11------|
E|-------9-----------|---9---9-----------|---9---9-----------|---9---9-----------|

e|-------------------|-------------------|-------------------|-------------------|
B|-------------------|-------------------|-------------------|-------------------|
G|-------------------|-------------------|-------------------|-------------------|
D|-----------11------|-----------11------|-----------11------|-----------11------|
A|---------------9---|---------------9---|---------------9---|---------------9---|
E|---9---7-----------|---7---7-----------|---7---7-----------|---7---7-----------|

e|-------------------|-------------------|-------------------|-------------------|
B|-------------------|-------------------|-------------------|-------------------|
G|---------------6---|---------------6---|---------------6---|---------------6---|
D|-----------6-------|-----------6-------|-----------6-------|-----------6-------|
A|-------------------|-------------------|-------------------|-------------------|
E|---7---6-----------|---6---6-----------|---6---6-----------|---6---6-----------|

e|-------------------|-------------------|-------------------|-------------------|
B|-------------------|-------------------|-------------------|-------------------|
G|-------------------|-------------------|-------------------|-------------------|
D|-----------11------|-----------11------|-----------11------|-----------11------|
A|---------------9---|---------------9---|---------------9---|---------------9---|
E|---6---7-----------|---7---7-----------|---7---7-----------|---7---7-----------|
(The outro is repeated until the guitar fades away within the song).


            
            
Suggest correction
Creating personal tab
Creating personal tab
You can edit any tab online and save it as your Personal.

You can edit, replace or remove any tab part or add personal notes – all changes will be seen only by you.

Personal tabs can be accessed anytime from any device, even offline.
Learn more »
Give kudos to tab author, rate the tab!
1 2 3 4 5
comments
print report bad tab
guest
You may want to rate the tab now too:
select rating
Wanna post a correction for this tab? Suggest correction