Oops, an error
Loading. Please wait.

Ya Pas Grand Chose Dans Lciel A Soir bass

by Kermess
13 views 1 this week
no commentswrite comment
1 2 3 4 5
3 more votes to show rating
add to favorites
×
Save as Personal and add changes to this tab that will be seen only by you. Learn more ›
×
You can save this tab as Personal to edit and correct it or add notes. All changes will be seen only by you. Learn more »
launch autoscroll
font size
0
reset
guitar tuner
edit
Autoscroll
slow
fast
+/-
esc
set tempo
stop
Author
Difficulty
About this tab version
This is a good song for beginning bass players. It contains few notes, but has a quick tempo at 140 BPMs. Was this info helpful? Yes No
Tempo = 140 BPM
Tab is written in 16th notes

G||----------------|----------------|
D||----------------|----------------|
A||------------2---|------------2---|
E||0---------------|0---------------|
   1e+a2e+a3e+a4e+a 1e+a2e+a3e+a4e+a 

G|----------------|----------------|----------------|----------------|
D|----------------|----------------|----------------|----------------|
A|2--22---2--22---|2--22---2--2----|----------------|------------2---|
E|----------------|------------0---|0--00---0--00---|0--00---0--0----|
  1e+a2e+a3e+a4e+a 1e+a2e+a3e+a4e+a 1e+a2e+a3e+a4e+a 1e+a2e+a3e+a4e+a 

G|----------------|----------------|----------------|----------------||
D|----------------|----------------|----------------|----------------||   X4
A|2--22---2--22---|2--22---2--2----|----------------|------------2---||
E|----------------|------------0---|0--00---0--00---|0--00---0--0----||
  1e+a2e+a3e+a4e+a 1e+a2e+a3e+a4e+a 1e+a2e+a3e+a4e+a 1e+a2e+a3e+a4e+a 

G||----------------|----------------|----------------|----------------||
D||----------------|----------------|----------------|----------------||  X3
A||2--22---2--22---|2--22---2--2----|----------------|------------2---||
E||----------------|------------0---|0--00---0--00---|0--00---0--0----||
   1e+a2e+a3e+a4e+a 1e+a2e+a3e+a4e+a 1e+a2e+a3e+a4e+a 1e+a2e+a3e+a4e+a 

G|----------------|----------------|----------------|----------------|
D|----------------|----------------|4---------------|4---------------|
A|------------2---|------------2---|------------4---|------------4---|
E|0---------------|0---------------|----------------|----------------|
  1e+a2e+a3e+a4e+a 1e+a2e+a3e+a4e+a 1e+a2e+a3e+a4e+a 1e+a2e+a3e+a4e+a 

G||----------------|----------------|----------------|----------------||
D||4--44---4--44---|4--44---4--4----|----------------|------------4---|| X10
A||----------------|------------4---|4--44---4--44---|4--44---4--4----||
E||----------------|----------------|----------------|----------------||
   1e+a2e+a3e+a4e+a 1e+a2e+a3e+a4e+a 1e+a2e+a3e+a4e+a 1e+a2e+a3e+a4e+a                 

G|----------------|----------------|
D|----------------|----------------|
A|------------4---|----------------|
E|2---------------|2---------------|

|| indicates a repeat section

            
            
Suggest correction
Creating personal tab
Creating personal tab
You can edit any tab online and save it as your Personal.

You can edit, replace or remove any tab part or add personal notes – all changes will be seen only by you.

Personal tabs can be accessed anytime from any device, even offline.
Learn more »
Give kudos to tab author, rate the tab!
1 2 3 4 5
comments
print report bad tab
guest
You may want to rate the tab now too:
select rating
Wanna post a correction for this tab? Suggest correction