Oops, an error
Loading. Please wait.

Fiscal Cliff tab

493 views 1 this week
no commentswrite comment
1 2 3 4 5
2 more votes to show rating
add to favorites
×
Save as Personal and add changes to this tab that will be seen only by you. Learn more ›
×
You can save this tab as Personal to edit and correct it or add notes. All changes will be seen only by you. Learn more »
launch autoscroll
font size
0
reset
how to read this tab
guitar tuner
edit
Autoscroll
slow
fast
+/-
esc
set tempo
stop
Fiscal Cliff by Kevin Devine and the Goddamn Band

Let feedback ring out between notes

Not 100% positive about the bridge, any suggestions would be great!

Intro:
d#|---------------15-18tp------20tp----20---------------------------------------------|
A#|17tp-15tp-13tp---------17tp------15---13tp-----------------------------------------|
F#|-----------------------------------------------------------------------------------|
C#|-----------------------------------------------------------------------------------|
G#|-----------------------------------------------------------------------------------|
D#|-----------------------------------------------------------------------------------|

Verse 1:
d#|-----------------------------------------------------------------------------------|
A#|-----------------------------------------------------------------------------------|
F#|5-5-5--5-5-5--5-5-5----------------------------------------------------------------|
C#|5-5-5--5-5-5--5-5-5--5-8-3---------------------------------------------------------|
G#|3-3-3--3-3-3--3-3-3--5-8-3---------------------------------------------------------|
D#|---------------------3-6-1---------------------------------------------------------|

Pre-Chorus:
d#|-----------------------------------------------------------------------------------|
A#|13tp-12-13tp-15-17tp---------------------------------------------------------------|
F#|-----------------------------------------------------------------------------------|
C#|-----------------------------------------------------------------------------------|
G#|-----------------------------------------------------------------------------------|
D#|-----------------------------------------------------------------------------------|

Chorus:
d#|-----------------------------------------------------------------------------------|
A#|-----------------------------------------------------------------------------------|
F#|---------------7-7------9-9-9---------------------7-7-9-9-9-7-7-7--------(2x)------|
C#|7-7-7-10-10-10-----7-7-7-----10-10-7-7-7-10-10-10-----------------10-10------------|
G#|-----------------------------------------------------------------------------------|
D#|-----------------------------------------------------------------------------------|

d#|-----------------------------------------------------------------------------------|
A#|-----------------------------------------------------------------------------------|
F#|---------------------------------------------------------7-7-9-9-9-7-7-7-----------|
C#|10-10-10-10-10-10-10-10-7--7-10-10-10-10-10-7--7-10-10-10----------------10-10-----|
G#|-------------------------10------------------10------------------------------------|
D#|-----------------------------------------------------------------------------------|

d#|-----------------------------------------------------------------------------------|
A#|-----------------------------------------------------------------------------------|
F#|-----------------------------------------------------------------------------------|
C#|10-10-10-10-10-10-10-10-(6x)-10-9b~~~10p9p7~~~-------------------------------------|
G#|-----------------------------------------------------------------------------------|
D#|-----------------------------------------------------------------------------------|

Post-Chorus:
d#|----------------12tp---------------------------------------------------------------|
A#|8tp--10tp--11tp------11tp--10tp----------------------------------------------------|
F#|--------------------------------9tp------------------------------------------------|
C#|-----------------------------------------------------------------------------------|
G#|-----------------------------------------------------------------------------------|
D#|-----------------------------------------------------------------------------------|

Verse 2:
d#|-----------------------------------------------------------------------------------|
A#|-----------------------------------------------------------------------------------|
F#|9tp-----------12tp---5-5--5-5--5-5--5----------------------------------------------|
C#|------5-8-3----------5-5--5-5--5-5--5----------------------------------------------|
G#|------5-8-3----------3-3--3-3--3-3--3----------------------------------------------|
D#|------3-8-1------------------------------------------------------------------------|

Bridge:
d#|7tp-8tp-7tp-------7tp-8tp-7tp------------------------------------------------------|
A#|5tp-5tp-5tp-------5tp-5tp-5tp------------------------------------------------------|
F#|------------5-------------------5-------5--------5------5~-------------------------|
C#|------------5-5-5---------------5-5-5---5-5-5---5-5-5---5~-------------------------|
G#|------------3-5-5---------------3-5-5---3-5-5---3-5-5---3~-------------------------|
D#|--------------3-3-----------------3-3-----3-3-----3-3------------------------------|

Chorus 2:
d#|-----------------------------------------------------------------------------------|
A#|-----------------------------------------------------------------------------------|
F#|--------------9-9------11-11-11---------------------9-9-11-11-11-9-9-9-------(2x)--|
C#|9-9-9-12-12-12---9-9-9---------12-12-9-9-9-12-12-12--------------------12-12-------|
G#|-----------------------------------------------------------------------------------|
D#|-----------------------------------------------------------------------------------|

d#|-----------------------------------------------------------------------------------|
A#|-----------------------------------------------------------------------------------|
F#|----------------------------------------------------------9-9-11-11-11-9-9-9-------|
C#|12-12-12-12-12-12-12-12-9--9-12-12-12-12-12-9--9-12-12-12--------------------12-12-|
G#|-------------------------12------------------12------------------------------------|
D#|-----------------------------------------------------------------------------------|

d#|-----------------------------------------------------------------------------------|
A#|-----------------------------------------------------------------------------------|
F#|-----------------------------------------------------------------------------------|
C#|12-12-12-12-12-12-12-12-(6x)-12-11b~~~12p11p9~~~-----------------------------------|
G#|-----------------------------------------------------------------------------------|
D#|-----------------------------------------------------------------------------------|

tp-tremelo pick
p-pull-off
b-bend

Order:
Intro       1x
Verse 1     4x
Pre-Chorus  1x
Chorus      1x
Post-Chorus 1x
Verse 1     2x
Verse 2     1x
Chorus      1x
Bridge      1x
Change-Bass Only
Chorus 2    1x


            
            
Suggest correction
Creating personal tab
Creating personal tab
You can edit any tab online and save it as your Personal.

You can edit, replace or remove any tab part or add personal notes – all changes will be seen only by you.

Personal tabs can be accessed anytime from any device, even offline.
Learn more »
Give kudos to tab author, rate the tab!
1 2 3 4 5
comments
print report bad tab
guest
You may want to rate the tab now too:
select rating
Wanna post a correction for this tab? Suggest correction