Oops, an error
Loading. Please wait.

Campo Argentino tab

48 views 1 this week
1 commentread comment
1 2 3 4 5
2 more votes to show rating
add to favorites
×
Save as Personal and add changes to this tab that will be seen only by you. Learn more ›
×
You can save this tab as Personal to edit and correct it or add notes. All changes will be seen only by you. Learn more »
launch autoscroll
font size
0
reset
how to read this tab
guitar tuner
edit
Autoscroll
slow
fast
+/-
esc
set tempo
stop
Intro 
e--------------------------------------------------------| 
B---2-----2--2-----2s-3------3--3-----3--2-----------| 
G------2---------2----------2---------1----------------| 
D--------------------------------------------------------| 
A--------------------------------------------------------| 
E--------------------------------------------------------| 
Repetir 

A D E (chacareramente) 

Estrofa 

e---------------------------------------------------------------------| 
B----14-----------14------------14------------14-------------------| 
G---------14-----------14------------14------------14--------------| 
D--------------14-----------14------------14------------14---------| 
A----------------------------------------------------------------------| 
E----------------------------------------------------------------------| 

e---------------------------------------------------------------------- 
B----15------------15------------15-------------15-----------------| 
G---------14------------14------------13-------------13------------| 
D--------------14------------14-------------14------------14-------| 
A----------------------------------------------------------------------| 
E----------------------------------------------------------------------| 
Repeat it 

e----------------------------------------------------------------------| 
B---------5------5-----5------5-----5-----5-----5-------------------| 
G-----6------6-----6------6-----7-----7-----7-----------------------| 
D----------------------------------------------------------------------| 
A----------------------------------------------------------------------| 
E----------------------------------------------------------------------| 
Repeat it 
Solo 
e------------------------------------------| 
B---9s-10--10--9--9--7--7--5-5s-7--7-| 

e--------------------------------------------------| 
B-5--3--2--3--5s-7--5-5h-7--7--5--3-2s-3--0-| 

Ending 
e-----------------------------------5-----------------------| 
B-------2------2-----3-----3-----5------------------------| 
G---2------2-----2-----1---------6------------------------| 
D-----------------------------------7-----------------------| 
A-----------------------------------7-----------------------| 
E-----------------------------------5-----------------------|

            
            
Suggest correction
Creating personal tab
Creating personal tab
You can edit any tab online and save it as your Personal.

You can edit, replace or remove any tab part or add personal notes – all changes will be seen only by you.

Personal tabs can be accessed anytime from any device, even offline.
Learn more »
Give kudos to tab author, rate the tab!
1 2 3 4 5
comments
print report bad tab
1 comment total.
0 reply
florisassies 10 Jul 27, 2015 11:12 AM

Lack of accuracy. Tab incomplete. no lyrics, no chords and the tab ain't even complete.

This is not very helpful. Thanks for trying.

and its stupid i need to write at least 20 words

guest
Wanna post a correction for this tab? Suggest correction