Oops, an error
Loading. Please wait.

Oh My Love, My Love tab

155 views 1 this week
no commentswrite comment
1 2 3 4 5
3 more votes to show rating
add to favorites
×
Save as Personal and add changes to this tab that will be seen only by you. Learn more ›
×
You can save this tab as Personal to edit and correct it or add notes. All changes will be seen only by you. Learn more »
launch autoscroll
font size
0
reset
how to read this tab
guitar tuner
edit
Autoscroll
slow
fast
+/-
esc
set tempo
stop
INTRO

E--------------------------------------------------------------------------
B-5-5--10--5-5--106--5-5-6-8-6-5-5--1-1-1-31-3-5-6-5--5-1-1-1-31-3-4-6-5
G--------------------------------------------------------------------------
D-5-5--10--5-5--106--5-5-6-8-6-5-5--1-1-1-31-3-5-6-5--5-1-1-1-31-3-4-6-5
A--------------------------------------------------------------------------
E--------------------------------------------------------------------------


ahora lo mismo pero con los bajos

E--------------------------------------------------------------------------
B-5-5--10--5-5--106--5-5-6-8-6-5-5--1-1-1-31-3-5-6-5--5-1-1-1-31-3-4-6-5
G--------------------------------------------------------------------------
D-5-5--10--5-5--106--5-5-6-8-6-5-5--1-1-1-31-3-5-6-5--5-1-1-1-31-3-4-6-5
A-3-3--8---3-3--8--4--3-3-4-6-4-3-3--------------3-4-3--3-------------2-4-3
E------------------------------------4-4-4-6-4-6----------4-4-4-6-4-6------

C
Oh my love, my love
I'd like to tell you something,
that this love my love
is the greatest of all
C         B       C
aaaaaaa   aaaaaa  aaaaa

C
oh my love my love
i can sense you are sensitive
so i'll tell you love
if you are willing to know
F
you are the only one
Bb                     C
and the first one i've really loved
C
so my love my love
Bb                 Am
give it all if its really love
G
and we'll both feel the
C        B        C
aaaaaaa  aaaaaaa  aaaaaaa

C
oh mi amor mi amor
quiero decirte algo
que este amor mi amor
es lo más grande que hay
C
oh my love my love
i can sense you are sensitive
so i'll tell you love
if you are willing to know
            F
you are the only one
Bb                            C
and the first one i've really loved
C
so my love my love
Bb                 Am
give it all if its really love
G
and we'll both feel the

C        B        C
aaaaaaa  aaaaaaa  aaaaaaa


INTRO


termina en C

Gran tema de kevin con andrea echeverri

Por GUICHE!

            
            
Suggest correction
Creating personal tab
Creating personal tab
You can edit any tab online and save it as your Personal.

You can edit, replace or remove any tab part or add personal notes – all changes will be seen only by you.

Personal tabs can be accessed anytime from any device, even offline.
Learn more »
Give kudos to tab author, rate the tab!
1 2 3 4 5
comments
print report bad tab
guest
Wanna post a correction for this tab? Suggest correction