Oops, an error
Loading. Please wait.

Should You Ever Meet Again bass

by KEY
142 views 1 this week
no commentswrite comment
1 2 3 4 5
3 more votes to show rating
add to favorites
×
Save as Personal and add changes to this tab that will be seen only by you. Learn more ›
×
You can save this tab as Personal to edit and correct it or add notes. All changes will be seen only by you. Learn more »
launch autoscroll
font size
0
reset
guitar tuner
edit
Autoscroll
slow
fast
+/-
esc
set tempo
stop
Author
    ---------------------------------------------------------------

    KEY - SHOULD YOU EVER MEET AGAIN (Voker Langefeld). Recorded in 
          1979, after a first and only album "FIT ME IN" (1978) and
          previously unreleased. # 16 track on the "FIT ME IN" 2007 
          Rev-Ola reissue.  
           
    ---------------------------------------------------------------

    Bass tab by: PJVillanueva





   Should you ever meet again a heart that's oh so true
   You know how to treat her and then be sure that it will only be for you.        

   Anytime and anywhere, no matter what you do
   You know it will always be there and love you too.

   Love is all, have you hardly at all to give it a try                        
   There's no way around, so don't ask me why.

   Yes so many lies behind, but tell us people say                        
   Hold on to the word in your mind and love it every hour of the day.       

   Through the years you realise that love wins anyway
   Show her by the look in your eyes you'd stay in love.                 

   Love is all, have you hardly at all to give it a try
   There's no way around, so don't ask me why. 

   Yes, so many lies behind, but tell us people say
   Hold on to the word in your mind and love it every hour of the day.     

   Through the years you realise that love wins anyway
   Show her by the look in your eyes you'd stay in love.                





   It was a little hard to make out the lyrics by Volker Langefeld.
   I'm not at all sure of the last word he sings at the end of the 
   verse - "Show her by the look in your eyes you'd stay ...?.." -
   in the middle and mostly at the ending of the song. It would be 
   fine If anyone knew the answer and shared it with all. Anyway the 
   song is a gem (the whole album is).
                                                         



     4/4


   G|------- ------- ------- -------|------- ------- ------- -------|
   D|-------------------------------|-------------------------------|
   A|-------------------------------|-------------------------------|
   E|-------------------------------|----------------------------7--|


    
 
   G|------- ------- ------- -------|------- ------- ------- -------|
   D|----------------7H9-----7H9----|----------------7H9-----7H9----|
   A|7-----------7------------------|7-----------7------------------|
   E|-------------------------------|-------------------------------|


     00:06

   G|------- ------- ------- -------|------- ------- ------- -------|
   D|---------------/9-------7H9----|----------------9H11----9H11---|
   A|7-----------7------------------|9-----------9------------------|
   E|-------------------------------|-------------------------------|
     Should      ever                meet    again               a 
         you


   G|------- ------- 9H11--- 9H11---|9------ ----6-- ------- -------|
   D|9-----------9------------------|----------------9---7---6------|
   A|-------------------------------|----------------------------9--|
   E|-------------------------------|-------------------------------|
     heart   that's      so      true
                 oh


   G|------- ------- ------- -------|------- ------- ----9-- 11-----|
   D|----------------9-------7H9----|----9---11--12-----------------|
   A|7-----------7------------------/12-----------------------------|
   E|-------------------------------|-------------------------------|
     You     know    how     to      treat   and then    be      sure
                                         her


   G|12----- ------- ------- -------|------- 6------ ------- -------|
   D|----12--9-------10-------------|----7-----------9---7---6------|
   A|------------10----------7---10-|9-----------9---------------9--|
   E|--------------------8----------|-------------------------------|
         that  will       be     for you.
           it     only

     00:22

   G|------- ------- ------- -------|------- ------- ------- -------|
   D|----------------7H9-----7H9----|----------------9H11----9H11---|
   A|7-----------7------------------|9-----------9------------------|
   E|-------------------------------|-------------------------------|
     Anytime                 and     anywhere,                   no



   G|------- ------- 9H11--- 9H11---|9------ ----6-- ------- -------|
   D|9-----------9------------------|----------------9---7---6------|
   A|-------------------------------|----------------------------9--|
   E|-------------------------------|-------------------------------|
     matter      what        you do



   G|------- ------- ------- -------|------- ------- 8/9---- 8/9----|
   D|----------------7H9-----7H9----|7-----------7------------------|
   A|7-----------7------------------|-------------------------------|
   E|-------------------------------|-------------------------------|
     You     know    it      will    always  be  there       and love
                                       


   G|8------ ------- ------- ----8--|7------ ------- ------- -------|
   D|----9-------------------9------|----9-----------7H9-----9------|
   A|--------11----------11---------|--------10---------------------|
   E|------------11-----------------|------------10-----------------|
                                                             you too.



   G|------- ------- ------- -------|------- ------- ------- -------|
   D|----------------7H9------------|-------------------------------|
   A|7-----------7------------------|7-------7---7---9---9---10--10-|
   E|------------------------7------|-------------------------------|



     00:42

   G|------- ----13-\12----- -------|------- ----11-\10----- -------|
   D|--------13---------------------|--------13----------11--9------|
   A|11--14-------------------------|11--------------------------11-|
   E|-------------------------------|-------------------------------|
     Love        all,        have    hardly  at  all             to
         is                      you


   G|------- ------- ------- -------|------- ------- ------- -------|
   D|--------11--------------13-----|--------14--------------16-\---|
   A|9-----------9-/-11----------11-|12----------14------14---------|
   E|-------------------------------|-------------------------------|
     give    a   try.                                         There's
         it


   G|------- ------- ------- -------|------- ------- 7H9---- 7H9----|
   D|----------------9-------9------|7-----------7------------------|
   A|7-----------7------------------|-------------------------------|
   E|-------------------------------|-------------------------------|
     no          way     around,                             so 



   G|------- ------- ------- -------|------- ------- ------- -------|
   D|----------------5H7-----7------|9---9---7---7---6---6----------|
   A|5-----------5------------------|------------------------9---9--|
   E|-------------------------------|-------------------------------|
     don't       ask     me      why.


     00:58

   G|------- ------- ------- -------|------- ------- ------- -------|
   D|----------------7H9-----7H9----|----------------9H11----9H11---|
   A|7-----------7------------------|9-----------9------------------|
   E|-------------------------------|-------------------------------|
     There's so      many        lies        behind,             but    



   G|------- ------- /11---- 9H11---|9---9-9 9---6-- ------- -------|
   D|9-----------9------------------|----------------9---7---6------|
   A|-------------------------------|----------------------------9--|
   E|-------------------------------|-------------------------------|
     tell        people          say 
         us   


   G|------- ------- ------- -------|------- ------- ----9-- 11-----|
   D|---------------/9--------------|----9---11--12-----------------|
   A|7-----------7-----------7------/12-----------------------------|
   E|-------------------------------|-------------------------------|
     Hold    on      to      the     word    your                and 
                                         in      mind


   G|12----- ------- ------- -------|------- 6------ ------- -------|
   D|----12--9-------10-------------|----7-----------9---7---6------|
   A|------------10----------7---10-|9-----------9---------------9--|
   E|--------------------8----------|-------------------------------|
     love    every       of      the day. 
         it      hour

     01:14

   G|------- ------- ------- -------|------- ------- ------- -------|
   D|----------------7H9-----7H9----|----------------9H11----9H11---|
   A|7-----------7------------------|9-----------9------------------|
   E|-------------------------------|-------------------------------|
     Through the years   you         realise                     that 



   G|------- ------- /11---- -------|9---9-9 9---6-- ------- -------|
   D|9-----------9-----------9------|----------------9---7---6------|
   A|-------------------------------|----------------------------9--|
   E|-------------------------------|-------------------------------|
     love    wins    anyway  



   G|------- ------- ------- -------|------- ------- 9------ 7H9----|
   D|----------------7H9-----7H9----|7-----------7------------------|
   A|7-----------7------------------|-------------------------------|
   E|-------------------------------|-------------------------------|
     Show    her     by      the     look    your        you'd   stay.
                                         in      eyes            


   G|8------ ------- ------- ----8--|7------ ------- ------- -------|
   D|----9-------------------9------|----9-----------7H9-----9------|
   A|--------11----------11---------|--------10---------------------|
   E|------------11-----------------|------------10-----------------|
                                                             in  love.



   G|------- ------- ------- -------|------- ------- ------- -------|
   D|----------------7H9------------|-------------------------------|
   A|7-----------7------------------|7-------7---7---9---9---10--10-|
   E|------------------------7------|-------------------------------|



     01:34

   G|------- ----13-\12----- -------|------- ----11-\10----- -------|
   D|--------13---------------------|--------------------11--9------|
   A|11--14-------------------------|11--------------------------11-|
   E|-------------------------------|-------------------------------|
     Love        all,        have    hardly  at  all             to
         is                      you


   G|------- ------- ------- -------|------- ------- ------- -----H-|
   D|--------11--------------13-----|--------14----------16--16-1416|
   A|9-----------9---9/11--------11-|12----------14-----------------|
   E|-------------------------------|-------------------------------|
     give    a   try                                         There's
         it


   G|------- ------- ------- -------|------- ------- 7H9---- 7H9----|
   D|----------------9-------9------|7-----------7------------------|
   A|7-----------7------------------|-------------------------------|
   E|-------------------------------|-------------------------------|
     no          way     around,                             so 



   G|------- ------- ------- -------|------- ------- ------- -------|
   D|----------------7-------7------/9---9---7---7---6---6----------|
   A|5-----------5------------------|------------------------9---9--|
   E|-------------------------------|-------------------------------|
     don't       ask     me      why.


     01:50

   G|------- ------- ------- -------|------- ------- ------- -H-----|
   D|----------------7H9-----7H9----|----------------9H11----911-10-|
   A|7-----------7------------------|9-----------9------------------|
   E|-------------------------------|-------------------------------|
     Well    so          many    lies        behind,             but 



   G|------- ------- /11---- -------|9---9-9 9---6-- ------- -------|
   D|9-----------9-----------9------|----------------9---7---6------|
   A|-------------------------------|----------------------------9--|
   E|-------------------------------|-------------------------------|
     tell        people          say
         us


   G|------- ------- ------- -------|------- ------- ----9-- 11-----|
   D|---------------/9-------7H9----|----9---11--12-----------------|
   A|7-----------7------------------|12-----------------------------|
   E|-------------------------------|-------------------------------|
     Hold    on      to      the     word    your                and 
                                         in      mind


   G|12----- ------- ------- -------|------- 6------ ------- -------|
   D|----12--9-------10-------------|----7-----------9---7---6------|
   A|------------10----------7---10-|9-----------9---------------9--|
   E|--------------------8----------|-------------------------------|         
     love    every       of      the day. 
         it      hour

     02:06

   G|------- ------- ------- -------|------- ------- ------- -------|
   D|----------------7H9-----7H9----|----------------9H11----9H11---|
   A|7-----------7------------------|9-----------9------------------|
   E|-------------------------------|-------------------------------|
     Through the years   you         realise                     that 
                


   G|------- ------- 9H11--- 9H11---|9------ ----6-- ------- -------|
   D|9-----------9------------------|----------------9---7---6------|
   A|-------------------------------|----------------------------9--|
   E|-------------------------------|-------------------------------|
     love    wins    anyway



   G|------- ------- ------- -------|------- ------- /9----- 7H9----|
   D|----------------7H9-----7H9----|7-----------7------------------|
   A|7-----------7------------------|-------------------------------|
   E|-------------------------------|-------------------------------|
     Show    her     by      the     look    your        you'd   stay.
                                         in      eyes            


   G|8------ ------- ------- ----8--|7------ ------- ------- -------|
   D|----9-------------------9------|----9-----------7H9------------|
   A|--------11----------11---------|--------10---------------------|
   E|------------11-----------------|------------10----------7------|
                                                             in  love.

                                                     (.

   G|------- ------- ------- -------|------- ------- ------- -------|
   D|----------------7H9-----7H9----|-------------------------------|
   A|7-----------7------------------|7------------------------------|
   E|-------------------------------|--------7-\-----0--------------|








        B  Bend
        R  Release
        /  slide up
        \  slide down
        H  hammer-on
        P  pull-off
        ~  vibrato
        +  harmonic
        x  Mute note
        . - play note like a dot in standard notation
        ^ - ties two notes together
        (.  Pause



            
            
Suggest correction
Creating personal tab
Creating personal tab
You can edit any tab online and save it as your Personal.

You can edit, replace or remove any tab part or add personal notes – all changes will be seen only by you.

Personal tabs can be accessed anytime from any device, even offline.
Learn more »
Give kudos to tab author, rate the tab!
1 2 3 4 5
comments
print report bad tab
guest
You may want to rate the tab now too:
select rating
Wanna post a correction for this tab? Suggest correction