Oops, an error
Loading. Please wait.

Heaven Sent intro tab

version 1
version 1

Intro

16,685 views 6 this week
1 commentread comment
1 2 3 4 5
x 4
add to favorites
×
Save as Personal and add changes to this tab that will be seen only by you. Learn more ›
×
You can save this tab as Personal to edit and correct it or add notes. All changes will be seen only by you. Learn more »
launch autoscroll
font size
0
reset
how to read this tab
guitar tuner
edit
Autoscroll
slow
fast
+/-
esc
set tempo
stop
the beginning goes like this

Intro:

|------------------|-------0--------------1--|-------0-----|
|-----3--------1---|-----1--1-----------1----|-----1-------|
|---2--------0-----|---2-------------2-------|---2---------|
|----------2-------|---------------0---------|-------------|
|-1------0---------|-3-----------------------|-3-----------|
|------------------|-------------------------|-------------| 

|------------------|-------0--------------1/0-----0----|
|-----3--------1---|-----1--1-----------1-------1------|
|---2--------0-----|---2-------------2--------0--------|
|----------2-------|---------------0-------------------|
|-1------0---------|-3---------------------------------|
|------------------|-----------------------------------| 

keep listening to the song and how its plucked, and youll get it easy.

..i just happened to find this while messing around with the guitar too
mmhaha.. ill try getting the whole song next time =]
not bad for my first tab? -vanessa r.


            
            
Suggest correction
Creating personal tab
Creating personal tab
You can edit any tab online and save it as your Personal.

You can edit, replace or remove any tab part or add personal notes – all changes will be seen only by you.

Personal tabs can be accessed anytime from any device, even offline.
Learn more »
comments
print report bad tab
1 comment total.
+3 reply
ryke 120 Oct 16, 2008 02:44 AM

yea nice tab not bad
here are some corrections though

|------------------|-------0--------------1--|-------0-----|
|----3---------1---|-----1--1-----------1----|-----1-------|
|---3--------0-----|---0-------------2-------|---0---------|
|--3-------2-------|---------------0---------|-------------|
|-1------0---------|-3-----------------------|-3-----------|
|------------------|-------------------------|-------------|


| i dont know |
| bout this part |
| cant really hear|
/--the differences.|
| |
| but it sounds |
| right. |
| |
|------------------|-------0--------------1/0-----0----|
|----3---------1---|-----1--1-----------1-------1------|
|---3--------0-----|---0-------------2--------0--------|
|--3-------2-------|---------------0-------------------|
|-1------0---------|-3---------------------------------|
|------------------|-----------------------------------|

guest
Wanna post a correction for this tab? Suggest correction