Oops, an error
Loading. Please wait.

Erase Me bass

version 1
version 1

Whole song

Interactive

by Kid Cudi feat. Kanye West
12,599 views 6 this week
1 commentread comment
1 2 3 4 5
x 13
add to favorites
×
Save as Personal and add changes to this tab that will be seen only by you. Learn more ›
×
You can save this tab as Personal to edit and correct it or add notes. All changes will be seen only by you. Learn more »
launch autoscroll
font size
0
reset
guitar tuner
edit
Autoscroll
slow
fast
+/-
esc
set tempo
stop
Author
Difficulty
-------------------------------------------------------------------------------
			     Erase Me - Kid Cudi
-------------------------------------------------------------------------------

Tabbed By : MusicMan24
e-mail: a7t1r1@hotmail.com

This is a great song by, probably the best rapper out there today.

It's a very easy song, good for beginners.


Tuning: Standard (EADG)


Verse 1

G|------------------------------------------------------|
D|------------------------------------------------------|
A|-------4-4-4-4-----------------------4-4-4-4----------|
E|5-5-5-5-------2-2-2-2-2-2-2-2-5-5-5-5-------2-2-2-2-2-|

G|------------------------------------------------------------|
D|------------------------------------------------------------|
A|-------4-4-4-4-----------------------4-4-4-4----------------|
E|5-5-5-5-------2-2-2-2-2-2-2-2-5-5-5-5-------2-2-2-2-2-2-2-2-|

G|----------------------------------------------------------------|
D|----------------------------------------------------------------|
A|5-5-5-5-4-4-4-4-2-2-2-2-2-2-2-2-5-5-5-5-4-4-4-4-7-7-7-7-7-7-7-7-|
E|----------------------------------------------------------------|

Chorus x2

G|---------------------------------------------------------------|
D|---------------------------------------------------------------|
A|-----------------------------------------------5-5-5-5-5-5-5-5-|
E|5-5-5-5-5-5-5-5-0-0-0-0-0-0-0-0-2-2-2-2-2-2-2-2----------------|

Verse 2

G|------------------------------------------------------------|
D|------------------------------------------------------------|
A|-------4-4-4-4-----------------------4-4-4-4----------------|
E|5-5-5-5-------2-2-2-2-2-2-2-2-5-5-5-5-------2-2-2-2-2-2-2-2-|

G|---------------------------------------------|
D|---------------------------------------------|
A|-------4-4-4-4-----------------------4-4-4-4-|
E|5-5-5-5-------2-2-2-2-2-2-2-2-5-5-5-5--------|

G|----------------------------------------------------------------|
D|----------------------------------------------------------------|
A|5-5-5-5-4-4-4-4-2-2-2-2-2-2-2-2-5-5-5-5-4-4-4-4-7-7-7-7-7-7-7-7-|
E|----------------------------------------------------------------|

G|----------------------------------------------------------------|
D|----------------------------------------------------------------|
A|5-5-5-5-4-4-4-4-2-2-2-2-2-2-2-2-5-5-5-5-4-4-4-4-7-7-7-7-7-7-7-7-|
E|----------------------------------------------------------------|

Chorus x2

Post-Chorus x2

G|-------------------------|
D|-------------------------|
A|-----------------5-5-5-5-|
E|55--5-00--0-22--2--------|

Verse 3

G|------------------------------------------------------------|
D|------------------------------------------------------------|
A|-------4-4-4-4-----------------------4-4-4-4----------------|
E|5-5-5-5-------2-2-2-2-2-2-2-2-5-5-5-5-------2-2-2-2-2-2-2-2-|

G|------------------------------------------------------------|
D|------------------------------------------------------------|
A|-------4-4-4-4-----------------------4-4-4-4----------------|
E|5-5-5-5-------2-2-2-2-2-2-2-2-5-5-5-5-------2-2-2-2-2-2-2-2-|

G|----------------------------------------------------------------|
D|----------------------------------------------------------------|
A|5-5-5-5-4-4-4-4-2-2-2-2-2-2-2-2-5-5-5-5-4-4-4-4-7-7-7-7-7-7-7-7-|
E|----------------------------------------------------------------|

G|----------------------------------------------------------------|
D|----------------------------------------------------------------|
A|5-5-5-5-4-4-4-4-2-2-2-2-2-2-2-2-5-5-5-5-4-4-4-4-7-7-7-7-7-7-7-7-|
E|----------------------------------------------------------------|

Chorus x2

END


I'm sure this tab is 100% correct


PEACE



| /  slide up
| \  slide down
| h  hammer-on
| p  pull-off
| ~  vibrato
| +  harmonic
| x  Mute note
===============================================================================

            
            
Suggest correction
Creating personal tab
Creating personal tab
You can edit any tab online and save it as your Personal.

You can edit, replace or remove any tab part or add personal notes – all changes will be seen only by you.

Personal tabs can be accessed anytime from any device, even offline.
Learn more »
comments
print report bad tab
1 comment total.
0 reply
just a name 464 Apr 22, 2016 08:41 PM

a few things after the 2nd verse, mainly octave changes.
G|----------------------------------------------------------------|
D|----------------------------------------------------------------|
A|5-5-5-5-4-4-4-4-2-2-2-2-2-2-2-2-5-5-5-5-4-4-4-4-----------------|
E|------------------------------------------------0-0-0-0-0-0-0-0-|

G|----------------------------------------------------------------|
D|----------------------------------------------------------------|
A|5-5-5-5-4-4-4-4-2-2-2-2-2-2-2-2-5-5-5-5-4-4-4-4-7-7-7-7-7-7-7-7-|
E|----------------------------------------------------------------|

Chorus x2

Post-Chorus x2

G|-------------------------|
D|-------------------------|
A|-----------------5-5-5-5-|
E|555-5-000-0-222-2--------|

Verse 3

G|------------------------------------------------------------|
D|------------------------------------------------------------|
A|-------4-4-4-4-----------------------4-4-4-4----------------|
E|5-5-5-5-------2-2-2-2-2-2-2-2-5-5-5-5-------2-2-2-2-2-2-2-2-|

G|-------------------------------------------------------------|
D|-------------------------------------------------------------|
A|-------4-4-4-4-----------------------4-4-4-4-9-9-9-9-9-9-9-9-|
E|5-5-5-5-------2-2-2-2-2-2-2-2-5-5-5-5------------------------|

G|----------------------------------------------------------------|
D|----------------------------------------------------------------|
A|5-5-5-5-4-4-4-4-2-2-2-2-2-2-2-2-5-5-5-5-4-4-4-4-----------------|
E|------------------------------------------------0-0-0-0-0-0-0-0-|

G|----------------------------------------------------------------|
D|----------------------------------------------------------------|
A|5-5-5-5-4-4-4-4-2-2-2-2-2-2-2-2-5-5-5-5-4-4-4-4-7-7-7-7-7-7-7-7-|
E|----------------------------------------------------------------|

Chorus x2

END

guest
You may want to rate the tab now too:
select rating
Wanna post a correction for this tab? Suggest correction