Oops, an error
Loading. Please wait.

Spank tab

350 views 1 this week
no commentswrite comment
1 2 3 4 5
3 more votes to show rating
add to favorites
×
Save as Personal and add changes to this tab that will be seen only by you. Learn more ›
×
You can save this tab as Personal to edit and correct it or add notes. All changes will be seen only by you. Learn more »
launch autoscroll
font size
0
reset
how to read this tab
guitar tuner
edit
Autoscroll
slow
fast
+/-
esc
set tempo
stop
Author
Lot's of effects here, but pretty simple. Not at all that difficult to play. Heavy 
almost all the way through. Spank is played waaaay down in Drop B.

Verse:

          Q    E  E  E  E  E  E     E  E  E  E  E  E  Q
Db-------|-------------------------|-------------------------|
Ab-------|-------------------------|-------------------------|
E--------|-------------------------|-------------------------|
B--------|-------------------------|--------------5----------|
Gb-------|--0----5--7-----3--5-----|--3--5-----3--5-----0----|
B--------|--0----5--7-----3--5-----|--3--5-----3--5-----0----|x12

And for the chorus we have...

Chorus:

   Q    H        E  E     E  E  E  E  E  E  E  E
|----------------------|--------------------------|
|----------------------|--------------------------|
|----------------------|--------------------------|
|-------0--------3--3--|--3--3--3--3--3--3--3--3--|
|-------0--------3--3--|--3--3--3--3--3--3--3--3--|
|-------0--------3--3--|--3--3--3--3--3--3--3--3--|

 "I would..."   "...try to burn you but I won't"
  E   E  E  E  Q    E   E     E  E  E  E  E  E  Q
---------------------------|--------------------------|
---------------------------|--------------------------|
---------------------------|--------------------------|
--5b--L--L--5-------5b--L--|--L--5--------5--6--5~----|
--5---L--L--5-------5---L--|--L--5--------5--6--5-----|
--5---L--L--5-------5---L--|--L--5--------5--6--5-----|x2

make sure to give a good subtle bend here at the same time as the first "I" and "try" in 
lyrics (I^ would try^ to burn you but I won't). Then the chorus goes on to this:


"...it's all your graces, your deadly sins"
   Q   E   Q.     Q       E   Q.     Q    E
|----------------------|-------------------------|
|----------------------|-------------------------|
|----------------------|-------------------------|
|--5---5--14------5----|--5--15------5----5--14--|
|--5---5----------5----|--5----------5----5------|
|--5---5--14------5----|--5--15------5----5--14--|x2

then right back into the main bit of the chorus a final time. It ends on:

  W
|------------|
|------------|
|------------|
|-0----------|
|-0----------|
|-0----------| sustained for three more bars

Verse 2 plays exactly like the first except the 2nd guitar repeats this riff lots:

 Q  E  E  E  E  Q   E  E  E  E  Q  Q

----10b11r10------|-10b11r10-------11|
-------------10---|----------10------|
------------------|------------------|
------------------|------------------|
------------------|------------------|
------------------|------------------|

For the bridge I'm 90% sure it's something like:

  PM PM PM PM PM PM PM PM     PM PM PM PM    PM
  E  E  E  E  E  E  E  E      E  E  E  E  E  E  E
|--------------------------|------------------------|
|--------------------------|------------------------|
|--------------------------|------------------------|
|--0--0--0--0--0--0--0--0--|--0--0--0--0--9--0--10--|
|--0--0--0--0--0--0--0--0--|--0--0--0--0--9--0--10--|
|--0--0--0--0--0--0--0--0--|--0--0--0--0--9--0--10--|x4 mostly palm-muted

then

"like drops of rain your love has no pain"

  E  E  E  E  E  E  E  E      E  E  E  E  E  E  E  E
---------------------------|---------------------------|
---------------------------|---------------------------|
---------------------------|---------------------------|
--0--10--9--0--8--7--0--7--|--6--0--6--5--0--9--0--10--|
--0--10--9--0--8--7--0--7--|--6--0--6--5--0--9--0--10--|
--0--10--9--0--8--7--0--7--|--6--0--6--5--0--9--0--10--|x4

ending on

"Thick drops of rain..."
  W
|------------|
|------------|
|------------|
|-0----------|
|-0----------|
|-0----------| this again for the same duration

then play this for the outro:

   Q    H        E  E     E  E  E  E  E  E  E  E
|----------------------|--------------------------|
|----------------------|--------------------------|
|----------------------|--------------------------|
|-------0--------3--3--|--3--3--3--3--3--3--3--3--|
|-------0--------3--3--|--3--3--3--3--3--3--3--3--|
|-------0--------3--3--|--3--3--3--3--3--3--3--3--|

  E   E  E  E  Q    E   E     E  E  E  E  E  E  Q
---------------------------|--------------------------|
---------------------------|--------------------------|
---------------------------|--------------------------|
--5b--L--L--5-------5b--L--|--L--5--------5--6--5~----|
--5---L--L--5-------5---L--|--L--5--------5--6--5-----|
--5---L--L--5-------5---L--|--L--5--------5--6--5-----|x4

basically a slightly altered version of the overall chorus. And that's pretty much the song.

Hope that's good. Kidneythieves rock

Duration Legend
---------------
W - whole
H - half
Q - quarter
E - 8th
S - 16th
T - 32nd
X - 64th
. - note dotted
|-n-|  - n-tuplets


Tablature Legend
----------------
L - tied note
x - dead note
g - grace note
(n) - ghost note
> - accentuded note
NH - natural harmonic
AH - artificial harmonic
TH - tapped harmonic
SH - semi harmonic
PH - pitch harmonic
h - hammer on
p - pull off
b - bend
br - bendRelease
pb - preBend
pbr - preBendRelease
brb - bendReleaseBend
\n/ - tremolo bar dip
\n - tremolo bar dive
-/n - tremolo bar Release up
/n\ - tremolo bar inverted dip
/n - tremolo bar return
-\n - tremolo bar Release down
S - shift slide
s - legato slide
/ -  slide into from below or out of upwards
\ -  slide into from above or out of downwards
~ - vibrato
W - wide vibrato
tr - trill
TP - tremolo picking
T - tapping
S - slap
P - pop
< - fade in
^ - brush up
v - brush down

            
            
Suggest correction
Creating personal tab
Creating personal tab
You can edit any tab online and save it as your Personal.

You can edit, replace or remove any tab part or add personal notes – all changes will be seen only by you.

Personal tabs can be accessed anytime from any device, even offline.
Learn more »
Give kudos to tab author, rate the tab!
1 2 3 4 5
comments
print report bad tab
guest
You may want to rate the tab now too:
select rating
Wanna post a correction for this tab? Suggest correction