Oops, an error
Loading. Please wait.

Artbreaker I tab

version 1
version 1

Whole song

5,854 views 1 this week
2 commentsread comments
1 2 3 4 5
x 6
add to favorites
×
Save as Personal and add changes to this tab that will be seen only by you. Learn more ›
×
You can save this tab as Personal to edit and correct it or add notes. All changes will be seen only by you. Learn more »
launch autoscroll
font size
0
reset
how to read this tab
guitar tuner
edit
Autoscroll
slow
fast
+/-
esc
set tempo
stop
-------------------------------------------------------------------------------
			     Artbreaker I - Kids In Glass Houses
-------------------------------------------------------------------------------
Tabbed by: Aaron Strawbridge (Shikari_18)
Email:aza24@hotmail.co.uk

Tuning: Drop D


This is my first tab so please rate and comment but be kind and constructive please! :)

Intro:

start off making some feedback noise then -

e|0~-------------------------------------------------------------------------|
B|0~-------------------------------------------------------------------------|
G|0~-------------------------------------------------------------------------|
D|---------------------------------------------------------------------------|
A|------0~-------------------------------------------------------------------|
D|---------------------------------------------------------------------------|

First time round is quiet then second time full volume!!

e|--------------------------------------------------------------------------------|
B|--------------------------------------------------------------------------------|
G|--7-57------------7-57-------5\-------------------------------------------------|
D|557-5755-77911--557-57-33-0305\-------------------------------------------------|
A|55----55-77911--55-----33-030----------------------------------------------|----|
D|55----55-77911--55-----33-030----------------------------------------------| ---|
										|
e|------------------------------------------------------------------------------|  |Repeat Once
B|---------------------------------------------------------------------------| -|
G|--7-57------------7-57-----------------------------------------------------| -|
D|557-5755-77911--557-57-33-03-----------------------------------------------| -|
A|55----55-77911--55-----33-03-----------------------------------------------|--|
D|55----55-77911--55-----33-03--------------------------------------------------|


Verse 1:

This is not the way we planned it, This is just the way it's going down, the greedy kiss 
empty handed,

e|---------------------------------------------------------------------------------------------|
B|---------------------------------------------------------------------------------------------|
G|---------------------------------------------------------------------------------------------|
D|-------------------------------------------------------------------------------------57-10-7-|
A|-------------------------------------------------------------------------------------57-10-7-|
D|9111191111119111111911\141414-9111191111119111111911\141414/9777977797779777/5777577757-10-7-|

And i can see the vultures landing, the value of the dollar to the noun, forever underestimated.

e|---------------------------------------------------------------------------------------------|
B|---------------------------------------------------------------------------------------------|
G|---------------------------------------------------------------------------------------------|
D|-------------------------------------------------------------------------------------57-10-7-|
A|-------------------------------------------------------------------------------------57-10-7-|
D|9111191111119111111911\141414-9111191111119111111911\141414/9777977797779777/5777577757-10-7-|


Chorus:

I love the way you call it art, when you never even use your heart, and i just 
wanna tear you apart.

e|---------------------------------------------------------------------------|
B|----------------5555555555555555-------------------------------------------|
G|----------------5555555555555555-------------------------------------------|
D|3333333333333333333333333333333355-555-555-555-58888888--------------------|
A|3333333333333333----------------55-555-555-555-58888888----5---------------|
D|3333333333333333----------------55-555-555-555-58888888-057-750------------|

I love the way you call it art, when you never even use your heart, and i just 
wanna tear you apart.

e|---------------------------------------------------------------------------|
B|----------------5555555555555555-------------------------------------------|
G|----------------5555555555555555-------------------------------------------|
D|3333333333333333333333333333333355-555-555-555-58888888--------------------|
A|3333333333333333----------------55-555-555-555-58888888----5---------------|
D|3333333333333333----------------55-555-555-555-58888888-057-750------------|


Clean and quiet before verse 2

e|---------------------------------------------------------------------------|
B|---------------------------------------------------------------------------|
G|--7-57---------------------------------------------------------------------|
D|557-5755-77911-------------------------------------------------------------|
A|55----55-77911-------------------------------------------------------------|
D|55----55-77911-------------------------------------------------------------|

Verse 2:

The needle finds the vinyl vein and, silence deafens everyone around, raise a 
glass of punk champagne

e|---------------------------------------------------------------------------------------------|
B|---------------------------------------------------------------------------------------------|
G|---------------------------------------------------------------------------------------------|
D|-------------------------------------------------------------------------------------57-10-7-|
A|-------------------------------------------------------------------------------------57-10-7-|
D|9111191111119111111911\141414-9111191111119111111911\141414/9777977797779777/5777577757-10-7-|

this is not the way we planned it, glad to say her bad ship's going down, so party like 
understand it.

e|---------------------------------------------------------------------------------------------|
B|---------------------------------------------------------------------------------------------|
G|---------------------------------------------------------------------------------------------|
D|-------------------------------------------------------------------------------------57-10-7-|
A|-------------------------------------------------------------------------------------57-10-7-|
D|9111191111119111111911\141414-9111191111119111111911\141414/9777977797779777/5777577757-10-7-|

Chorus:

I love the way you call it art, when you never even use your heart, and i just 
wanna tear you apart.

e|---------------------------------------------------------------------------|
B|----------------5555555555555555-------------------------------------------|
G|----------------5555555555555555-------------------------------------------|
D|3333333333333333333333333333333355-555-555-555-58888888--------------------|
A|3333333333333333----------------55-555-555-555-58888888----5---------------|
D|3333333333333333----------------55-555-555-555-58888888-057-750------------|

I love the way you call it art, when you never even use your heart, and i just 
wanna tear you apart.

e|-----------------------------------------------------------------------------------|
B|----------------5555555555555555---------------------------------------------------|
G|----------------5555555555555555---------------------------------------------------|
D|3333333333333333333333333333333355-555-555-555-58888888/---------------------------|
A|3333333333333333----------------55-555-555-555-58888888/----5------------5---------|
D|3333333333333333----------------55-555-555-555-58888888/-057-73030355-057-73030355-|

Outro:

This is not the way we came to play around, this is not the way we came to play around.

e|---------------------------------------------------------------------------|
B|---------------------------------------------------------------------------|
G|----7------------7------------7--------------------------------------------|
D|-057773030355-057773030355-057773030355-0000-3333-0~-----------------------|
A|-057573030355-057573030355-057573030355-0000-3333-0~-----------------------|
D|-057-73030355-057-73030355-057-73030355-0000-3333-0~-----------------------|

This tab can also be used for artbreaker II

************************************

| /   slide up
| \   slide down
| h   hammer-on
| p   pull-off
| ~   vibrato
| +   harmonic
| x   Mute note
| b   Bend
| pb  Pre-bend
| br  Bend release
| pbr Pre-bend release
| brb Bend release bend

************************************

            
            
Suggest correction
Creating personal tab
Creating personal tab
You can edit any tab online and save it as your Personal.

You can edit, replace or remove any tab part or add personal notes – all changes will be seen only by you.

Personal tabs can be accessed anytime from any device, even offline.
Learn more »
comments
print report bad tab
2 comments total.
0 reply
riffking 236 Jul 11, 2010 03:55 AM

Intro should be:

e|-------------------------------------------------------|
B|-------------------------------------------------------|
G|--7-57----------------7-57--------5\-------------------|
D|557-57-3/5-88/1010--557-57-3-3-0305\-------------------|
A|55-----3/5-88/1010--55-----3-3-030---------------------|
D|55-----3/5-88/1010--55-----3-3-030---------------------|

e|-------------------------------------------------------|
B|-------------------------------------------------------|
G|--7-57----------------7-57-----------------------------|
D|557-57-3/5-88/1010--557-57-3-3-03----------------------|
A|55-----3/5-88/1010--55-----3-3-03----------------------|
D|55-----3/5-88/1010--55-----3-3-03----------------------|


Also if you want opening riff to have the smae effect as in the song, turn both bass and treble right down on amp, leaving middle.

0 reply
Izzy-M 124 Aug 09, 2010 06:51 AM

I play the intro like this:

e|-------------------------------------------------------|
B|-------------------------------------------------------|
G|--7-57----------------7-57--------5\-------------------|
D|357-57-3/5-88/1010--557-57-3-3-0305\-------------------|
A|35-----3/5-88/1010--55-----3-3-030---------------------|
D|35-----3/5-88/1010--55-----3-3-030---------------------|

e|-------------------------------------------------------|
B|-------------------------------------------------------|
G|--7-57----------------7-57-----------------------------|
D|357-57-3/5-88/1010--557-57-3-3-03----------------------|
A|35-----3/5-88/1010--55-----3-3-03----------------------|
D|35-----3/5-88/1010--55-----3-3-03----------------------|

guest
You may want to rate the tab now too:
select rating
Wanna post a correction for this tab? Suggest correction