Oops, an error
Loading. Please wait.

Church Tongue tab

version 2
version 2

Whole song

672 views 1 this week
1 commentread comment
1 2 3 4 5
1 last vote to show rating
add to favorites
×
Save as Personal and add changes to this tab that will be seen only by you. Learn more ›
×
You can save this tab as Personal to edit and correct it or add notes. All changes will be seen only by you. Learn more »
launch autoscroll
font size
0
reset
how to read this tab
guitar tuner
edit
Autoscroll
slow
fast
+/-
esc
set tempo
stop
Author
Church Tongue-Kids In Glass Houses

Tabbed by Matt Bugby
Tuning-EADGBe
Email-tears--dont--fall@hotmail.co.uk

i love kids in glass houses new album and thought i would tab some of the songs. Will 
have more kigh songs up (:

Intro
Lead
e|----------------------------------------------------|
B|-----7-1010-7-1010-7-----------7-1010-7-1010-7------|
G|6-7-9---------------9-7---6-7-9----------------9-11-|
D|----------------------------------------------------|
A|----------------------------------------------------|
E|----------------------------------------------------|

Rhythm
e|-------------------------|
B|-------------------------|
G|-------------------------|
D|555555-999999-7777777777-|
A|555555-999999-7777777777-|
E|333333-777777-5555555555-|

Verse
Lead
e|-------------------|
B|8\7--5/7--5/7--5/7-|
G|9\7--6/7--6/7--6/7-|
D|x-x--x-x--x-x--x-x-|  X2
A|7\5--4/5--4/5--4/5-|
E|-------------------|
  ^ each one is played after each powerchord by the rhythm guitar

Rhythm
e|------------------------|
B|------------------------|
G|------------------------|
D|----5-----7-----9-----9-|   X2
A|----5-----7-----9-----9-|
E|2/3-3-3/5-5-5/7-7-5/7-7-|

then

Lead
e|----------------------------------------------------|
B|-----7-1010-7-1010-7-----------7-1010-7-1010-7------|
G|6-7-9---------------9-7---6-7-9----------------9-11-| X2
D|----------------------------------------------------|
A|----------------------------------------------------|
E|----------------------------------------------------|
                ^ 9-11 not played second time
Rhythm
e|-----------------------------------|
B|-----------------------------------|
G|-----------------------------------|
D|55555555-77777777-99999999999999---|
A|55555555-77777777-99999999999999---|
E|33333333-55555555-77777777777777---|
  PM---------------------------------|

Chorus
Lead
e|-------------------------------------------------------------------------|
B|/7777-10101010-10-8-7--8-8-77-8------/7777-10101010-12-10-8-7--8-7-8-7-5-|
G|-------------------------------------------------------------------------|
D|-------------------------------------------------------------------------|
A|-------------------------------------------------------------------------|
E|-------------------------------------------------------------------------|


Rhythm
e|------------------------------------|
B|------------------------------------|
G|77777777----------------------------|
D|77777777-77777777-99999999-55555555-|  X2
A|55555555-77777777-99999999-55555555-|
E|---------55555555-77777777-33333333-|

Post Chorus

e|----------------|
B|----------------|
G|----------------|
D|55-77-44-5555-7-|
A|55-77-44-5555-7-|
E|33-55-22-3333-5-|

Verse

Chorus

Bridge
Lead
e|------------------------------------------------------------------------|
B|------------------------7-5-/10-7b8r7--------------------------7-5------|
G|6b7r6b7r6b7r6--------7-9---7-----------6b7r6b7r6b7r6--------7-9---7-/7~-|
D|--------------7--/7-9--------------------------------7--/7-9------------|
A|------------------------------------------------------------------------|
E|------------------------------------------------------------------------|

Rhythm
e|------------------------------------|
B|------------------------------------|
G|---------77777777----------7777777--|
D|77777777-77777777-77777777-77777775-|
A|77777777-55555555-77777777-55555555-|
E|55555555----------55555555--------3-|

Then Rhythm plays the verse
e|------------------------|
B|------------------------|
G|------------------------|
D|----5-----7-----9-----9-|   X2
A|----5-----7-----9-----9-|
E|2/3-3-3/5-5-5/7-7-5/7-7-|


Last Chorus
Lead
e|-------------------------------------------------------------------------|
B|/7777-10101010-10-8-7--8-8-77-8------/7777-10101010-12-10-8-7--8-7-8-7-5-|
G|-------------------------------------------------------------------------|
D|-------------------------------------------------------------------------|  X2
A|-------------------------------------------------------------------------|
E|-------------------------------------------------------------------------|


Rhythm
e|------------------------------------|
B|------------------------------------|
G|77777777----------------------------|
D|77777777-77777777-99999999-55555555-|  X4
A|55555555-77777777-99999999-55555555-|
E|---------55555555-77777777-33333333-|


Last time the rhythm plays the 355 once to end it & lead ends on 8. listen to the song 
you'll see what i mean.

            
            
Suggest correction
Creating personal tab
Creating personal tab
You can edit any tab online and save it as your Personal.

You can edit, replace or remove any tab part or add personal notes – all changes will be seen only by you.

Personal tabs can be accessed anytime from any device, even offline.
Learn more »
Give kudos to tab author, rate the tab!
1 2 3 4 5
comments
print report bad tab
1 comment total.
0 reply
LewisMasonx 1,741 Jul 25, 2008 02:31 PM

The very first four notes of the intro don't sound right to me, but the rest sounds more or less good :)

guest
You may want to rate the tab now too:
select rating
Wanna post a correction for this tab? Suggest correction