Oops, an error
Loading. Please wait.

Give Me What I Want tab

version 1
version 1

Whole song

Interactive

7,003 views 1 this week
no commentswrite comment
1 2 3 4 5
1 last vote to show rating
add to favorites
×
Save as Personal and add changes to this tab that will be seen only by you. Learn more ›
×
You can save this tab as Personal to edit and correct it or add notes. All changes will be seen only by you. Learn more »
launch autoscroll
font size
0
reset
how to read this tab
guitar tuner
edit
Autoscroll
slow
fast
+/-
esc
set tempo
stop
Author
-------------------------------------------------------------------------------
                             give me what i want -  kids in  glass houses
-------------------------------------------------------------------------------
Tabbed by: watsondude :D
Email:adamwatson00@hotmail.co.uk

hey dudes. I've managed to work out parts of the song for you ill try and put them in 
:D
it may be in drop d, but dont worry if it is.

Intro: PLAY THIS 10 TIMES
e|---------------------------------------------------------------------------|
B|-------12---------7---9----------------------------------------------------|
G|---------------------------------------------------------------------------|
D|---------------------------------------------------------------------------|
A|----11---------7-----------------------------------------------------------|
E|-9---------5---------------------------------------------------------------|

play this 4 times after intro :D
e|--9---7-------9///12-------------------------------------------------------|
B|----------9------------14---12---14---12---14------------------------------|
G|---------------------------------------------------------------------------|
D|---------------------------------------------------------------------------|
A|---------------------------------------------------------------------------|
E|---------------------------------------------------------------------------|

Then comes the chords, im not sure how many times there played you will have to listern 
the song but it goes like this.
e|---------------------------------------------------------------------------|
B|9---9---7---7---9---9---7---7---9---9---7---7---9---9---5--5---------------|
G|9---9---8---8---9---9---8---8---9---9---9---9---9---9---6--6---------------|
D|9---9---9---9---9---9---9---9---9---9---9---9---9---9---7--7---------------|
A|---------------------------------------------------------------------------|
E|---------------------------------------------------------------------------|


I hope they this helps. Please thanks.

            
            
Suggest correction
Creating personal tab
Creating personal tab
You can edit any tab online and save it as your Personal.

You can edit, replace or remove any tab part or add personal notes – all changes will be seen only by you.

Personal tabs can be accessed anytime from any device, even offline.
Learn more »
Give kudos to tab author, rate the tab!
1 2 3 4 5
comments
print report bad tab
guest
You may want to rate the tab now too:
select rating
Wanna post a correction for this tab? Suggest correction