Oops, an error
Loading. Please wait.

Saturday tab

version 1
version 1

Whole song

Interactive

15,287 views 1 this week
6 commentsread comments
1 2 3 4 5
x 7
add to favorites
×
Save as Personal and add changes to this tab that will be seen only by you. Learn more ›
×
You can save this tab as Personal to edit and correct it or add notes. All changes will be seen only by you. Learn more »
launch autoscroll
font size
0
reset
how to read this tab
guitar tuner
edit
Autoscroll
slow
fast
+/-
esc
set tempo
stop
Author
I tabbed the song roughly. I'm sure its at least 90% correct as i had some trouble with 
intro, but the rest of it sounds pretty good. Hope you enjoy the tab and let me know of 
corrections you have for it. : )

lead main theme
E|-----------6-----------6---------|
B|---------------------------------|
G|-8-8-8-8-8---8-8-8-8-8---8-8-7---|
D|-8-8-8-8-8---8-8-8-8-8---8-8-8---| repeat
A|-6-6---6-6---6-6---6-6---6-6-6---|
D|---------------------------------|
Pm----   ---   ---   ---   --------|

Pre chorus lead (0:15)/(0:39)
E|--------------------|
b|--------------------|
G|--------------------|
D|-----8-----10-8-8-8-|
A|--------------------|
D|-6-6---6-6----8-8-8-|

Rhythm main theme
E|--------------------------|
B|--------------------------|
G|-8------------------------|
D|-8-----10-----6-----8-----|
A|-6-x13-10-x13-6-x13-8-x13-|
D|-------10-----6-----8-----|

Pre chorus Rhythm (0:44)
E|-----------------|
B|-----------------|
G|-7-7-7-7-7-7-7-7-|
D|-x-x-x-x-x-x-x-x-|
A|-5-5-5-5-5-5-5-5-|
D|-----------------|

Lead chorus
E|-15--15--15--15---13--13--13-13---15--15--15--15--13--13--13--13-|
B|---16--16--16--16---16--16--16--16--16--16--16--16--15--15--15---|
G|-----------------------------------------------------------------|
D|-----------------------------------------------------------------|
A|-----------------------------------------------------------------|
D|-----------------------------------------------------------------|

Rhythm chorus
E|-------------------------|
B|-------------------------|
G|-------8-----------------|
D|-1-----8-----6-----8-----|
A|-1-x13-6-x13-6-x13-8-x13-|
D|-1-----------6-----8-----|

Break (2:02)
E|-------------------------|
B|-------------------------|
G|-------------------------|
D|-1-----6-----1-----8-----|
A|-1-x13-6-x13-1-x13-8-x13-|
D|-1-----6-----1-----8-----|

e|----------------------------|
B|----------------------------|
G|15-12-10-8-------------10-7-| Thanks to brokenunder
D|-X-X--X--X--x2---------X--X-|
A|13-10-8--6-------------8--5-|
D|----------------------------|

            
            
Suggest correction
Creating personal tab
Creating personal tab
You can edit any tab online and save it as your Personal.

You can edit, replace or remove any tab part or add personal notes – all changes will be seen only by you.

Personal tabs can be accessed anytime from any device, even offline.
Learn more »
comments
print report bad tab
6 comments total. Showing first comments.
0 reply
brokenunder 364 Jul 24, 2008 02:10 AM

goood tab but the octaves are

e|----------------------------|
B|----------------------------|
G|15-12-10-8-------------10-7-|
D|XX-XX-X--X--x2--THEN---X--X-|
A|13-10-8--6-------------8--5-|
E|----------------------------|

then where he goes 'bitch of a weekend'

e|---------|
B|---------|
G|5555-5555|
D|5555-5555|
A|3333-3333|
E|---------|

also im not sure but i think the rhythm plays the lead octaves in the break in the last chorus.

0 reply
LewisMasonx 1,741 Jul 24, 2008 08:30 AM

Those octaves in that correction are right, the song's also in standard tuning as opposed to Drop D I think.

And yeah, the octaves are played in the final chorus as an overdub.

0 reply
brokenunder 364 Jul 26, 2008 09:43 AM

also in the main theme
E|-----------6-----------6---------|
B|---------------------------------|
G|-8-8-8-8-8---8-8-8-8-8---8-8-7---|
D|-8-8-8-8-8---8-8-8-8-8---8-8-8---| repeat
A|-6-6---6-6---6-6---6-6---6-6-6---|
D|---------------------------------|
Pm---- --- --- --- --------|

i think it sounds better like

E|-----------6-----------6---------|
B|----------------8----------------|
G|-8-8-8-8-8---8--8-8-8---8-8-7----|
D|-8-8-8-8-8---8----8-8---8-8-8----| repeat
A|-6-6---6-6---6----6-6---6-6-6----|
D|---------------------------------|
Pm---- --- -- --- ---------|

guest
You may want to rate the tab now too:
select rating
Wanna post a correction for this tab? Suggest correction