Oops, an error
Loading. Please wait.

Youngblood Let It Out tab

version 2
version 2

Whole song

Interactive

10,559 views 1 this week
5 commentsread comments
1 2 3 4 5
x 8
add to favorites
×
Save as Personal and add changes to this tab that will be seen only by you. Learn more ›
×
You can save this tab as Personal to edit and correct it or add notes. All changes will be seen only by you. Learn more »
launch autoscroll
font size
0
reset
how to read this tab
guitar tuner
edit
Autoscroll
slow
fast
+/-
esc
set tempo
stop
Hey. this song is awesome so hope this is right :)but it think it is.
im open for corrections.
o and i put the bass in just for fun :)

Also the rhythm guitar basically echo's the bass, but uses power chords. He also 
palm mutes, so listen to the song to hear when he does that. :)

Guitar.


main riff

E--------------------------------------------| x4
B-10-10-10-10-9-9-9--------------------------|
G-------------------11-11-11----------9-9-9--|
D----------------------------11-11-11--------|
A--------------------------------------------|
E--------------------------------------------|

second riff

E--------------------------------------------| x2
B--------------------------10-9--------------|
G--11-11-11-11-9-9-9-9-9-9-9--9--------------|
D--------------------------------------------|
A--------------------------------------------|
E--------------------------------------------|

Chorus

E-x-x-x-x----0-0-0-0-0-0-0-0-0-0-0-0-0-0-0-0-----|
B-x-x-x-x----0-0-0-0-0-0-0-0-0-0-0-0-0-0-0-0-----|
G-x-x-x-x----1-1-1-1-1-1-1-1-1-1-1-1-1-1-1-1-----|
D-x-x-x-x----2-2-2-2-2-2-2-2-2-2-2-2-2-2-2-2-----|
A-x-x-x-x x1 2-2-2-2-2-2-2-2-2-2-2-2-2-2-2-2--x2-| 
E-x-x-x-x----0-0-0-0-0-0-0-0-0-0-0-0-0-0-0-0-----|

E-2-2-2-2-2-2-2-2-2-2-2-2-2-2-2-2-5-5-5-5-5-5-5-5-5-5-5-5-5-5-5-5-| x2
B-2-2-2-2-2-2-2-2-2-2-2-2-2-2-2-2-5-5-5-5-5-5-5-5-5-5-5-5-5-5-5-5-|
G-2-2-2-2-2-2-2-2-2-2-2-2-2-2-2-2-6-6-6-6-6-6-6-6-6-6-6-6-6-6-6-6-|
D-4-4-4-4-4-4-4-4-4-4-4-4-4-4-4-4-7-7-7-7-7-7-7-7-7-7-7-7-7-7-7-7-|
A-4-4-4-4-4-4-4-4-4-4-4-4-4-4-4-4-7-7-7-7-7-7-7-7-7-7-7-7-7-7-7-7-|
E-2-2-2-2-2-2-2-2-2-2-2-2-2-2-2-2-5-5-5-5-5-5-5-5-5-5-5-5-5-5-5-5-|

Interlude

E-----------------------------------------------------|
B------9-------------------9--------------------------|
G--11-----9--8s9s8-x3--11-----9 on the last one.------|
D-----------------------------------------------------|
A-----------------------------------------------------|
E-----------------------------------------------------|

right thats the guitar done.

Bass.

Main Riff

G----------------------------------------------------------------------|
D----------------------------------------------------------------------|
A-7-7-7-7-7-7-7-7-7-7-7-7-7-7-7-7- x2 -4-4-4-4-4-4-4-4-4-4-4-4-4-4-4-4-|
E----------------------------------------------------------------------|

G---------------------------------|
D---------------------------------|
A-0-0-0-0-0-0-0-0-0-0-0-0-0-0-0-0-|
E---------------------------------|

G----------------------------------------------------------------------|
D----------------------------------------------------------------------|
A-7-7-7-7-7-7-7-7-7-7-7-7-7-7-7-7- x2 -4-4-4-4-4-4-4-4-4-4-4-4-4-4-4-4-|
E----------------------------------------------------------------------|

G-------------------------------------------------|
D-------------------------------------------------|
A-12-12-12-12-12-12-12-12-12-12-12-12-12-12-12-12-|
E-------------------------------------------------|

Chorus

G----------------------------------------------------------------------|
D----------------------------------------------------------------------|
A----------------------------------------------------------------------|
E-0-0-0-0-0-0-0-0-0-0-0-0-0-0-0-0- x2 -2-2-2-2-2-2-2-2-2-2-2-2-2-2-2-2-|

G---------------------------------| x2
D---------------------------------|
A---------------------------------|
E-5-5-5-5-5-5-5-5-5-5-5-5-5-5-5-5-|

right folks thats it :) i hope this helped you :)

            
            
Suggest correction
Creating personal tab
Creating personal tab
You can edit any tab online and save it as your Personal.

You can edit, replace or remove any tab part or add personal notes – all changes will be seen only by you.

Personal tabs can be accessed anytime from any device, even offline.
Learn more »
comments
print report bad tab
5 comments total. Showing first comments.
0 reply
mateo145 59 Jan 23, 2010 06:06 AM

in the chorus the e is a bar chord not a open chord, lest i think it is after looking at ther music video

0 reply
shikari_18 31 Feb 08, 2010 09:02 AM

In the second riff the 10 9 bit at the end should be played on the B string

0 reply
wisemancheez 10 Apr 10, 2010 02:04 AM

@shikari_18 - It is isn't it? Also aren't there two guitar parts to this song? At 1:00 just after the first chorus, and at 1:24 there is a palm muted guitar (second verse)

guest
You may want to rate the tab now too:
select rating
Wanna post a correction for this tab? Suggest correction