Oops, an error
Loading. Please wait.

En Un Mercedes Blanco tab

162 views 1 this week
no commentswrite comment
1 2 3 4 5
3 more votes to show rating
add to favorites
×
Save as Personal and add changes to this tab that will be seen only by you. Learn more ›
×
You can save this tab as Personal to edit and correct it or add notes. All changes will be seen only by you. Learn more »
launch autoscroll
font size
0
reset
how to read this tab
guitar tuner
edit
Autoscroll
slow
fast
+/-
esc
set tempo
stop
Aqui va con acordes:

INTRO: Em D C D

Em                D
En un mercedes blanco llegó
B7                 Em
A la feria del ganado
Em                  D
Diez duros de papel Albal
C                       B7
Y el cielo se ha iluminado

Viene desde muy lejos y ya
No le queda ni memoria
Dice que duende se la cambió
Por un ratito de gloria

En un mercedes blanco llegó
De lunares el pañuelo
Todos los chiquillos detrás de él
Siempre va mirando al suelo

G7                 C
¡Qué pena de muchacho!
               Bm           C        B7
Le dicen la gente en los bares
-                    D
Cuando juegan a las máquinas
     C                 B7
Y recogen lo que les sale
G7                    D
Cuando juegan a las máquinas
     C                D
y recogen lo que les sale

C                      Em
Tres reyes van en un barco
C                      Em
Son tres reyes y un secreto
F#                 B7
Ni ruinas ni cenizas
      C                    B7
Ni papel que lleve el viento

Em             D         C             D
Ponme, ponme la cinta otra vez
Pónmela hasta que se arranque
Los cachitos de hierro y cromo
A cantar como tú sabes


G7: 353433
-----------------------------------------
Aqui va la version rollo Bossanova del
recopilatorio "Puro Veneno"


Intro:

e-----------------------------------------------
B----7--7----5---5----3---3----5---5------------
G----7--7----5---5----3---3----5---5------------
D----6--6----4---4----2---2----4---4------------     x6
A--7---7---5----5---3----3---5----5-------------
E-----------------------------------------------

Cuerpo:

   En un mercedes blanco llegó...
e-----------------------------------------------
B--7--------------5------5~---------------------
G--7--------------5------5~---------------------
D--6--------------4------4~---------------------
A--7--------------5------5~---------------------
E-----------------------------------------------

        ...a la feria del ganado.
e----------------------------------------
B--5~~0----------------------7--7--7--7--
G--5~~2----------------------7--7--7--7--
D--4~~1----------------------X--x--x--x--
A--5~~2---------------------7--6--5--6---
E----------------------------------------

 Mil duros de papel albal
e-------------------------------------------
B--7--------------5--5~---------------------
G--7--------------5--5~---------------------
D--6--------------4--4~---------------------
A--7--------------5--5~---------------------
E-------------------------------------------

y el cielo se ha iluminado
e------------------------------
B--5~~3----------3~~2----------
G--5~~3----------3~~2----------
D--3~~2----------2~~1----------
A--5~~3----------3~~2----------
E------------------------------


G7              C               B7             C        B7
Que pena de muchacho le dice la gente en los bares
-                     D            C               B7
cuando juegan a las maquinas y recogen lo que les sale.

            
            
Suggest correction
Creating personal tab
Creating personal tab
You can edit any tab online and save it as your Personal.

You can edit, replace or remove any tab part or add personal notes – all changes will be seen only by you.

Personal tabs can be accessed anytime from any device, even offline.
Learn more »
Give kudos to tab author, rate the tab!
1 2 3 4 5
comments
print report bad tab
guest
Wanna post a correction for this tab? Suggest correction