Oops, an error
Loading. Please wait.

Octubre tab

97 views 1 this week
no commentswrite comment
1 2 3 4 5
3 more votes to show rating
add to favorites
×
Save as Personal and add changes to this tab that will be seen only by you. Learn more ›
×
You can save this tab as Personal to edit and correct it or add notes. All changes will be seen only by you. Learn more »
launch autoscroll
font size
0
reset
how to read this tab
guitar tuner
edit
Autoscroll
slow
fast
+/-
esc
set tempo
stop
EY ESTA BUENA ROLA SE LA KIERO DEDICAR A MI NOVIA ARY.
Y A MIS CARNALES LOS CRISPYS.
ESTA MUY FACIL HECHENLE GANAS.

INTRO
e----------------------------------------------------------
B----------------------------------------------------------
G------0-------0------0-----0------0------0------0------0--
D-5-------5------5------5-----4------4------4-----4------X2
A----5------5-------5-----5-----5------5------5------5-----
E----------------------------------------------------------

EMPIEZA A CANTAR?

IMÁGENES?
SE REPITE LO QUE VIENE SIEDO EN INTRO SE REPITE X4 LUEGO
CUANDO ACABA DE CANTAR LA PRIMER ESTROFA VA ESTO.

e-------------------------------
B-------------------------------
G-----0------0-------0------0---
D---5-----5-------5-------5-----     TE DOY LA GRACIAS?
A------------------------------5
E-7-----8------7--------8-------


e-------------------------------
B-------------------------------
G-----0------0-------0------0---
D---5-----5-------5-------5-----     Y ASI ESTAREMOS?
A------------------------------5
E-7-----8------7--------8-------

e-------------------------------
B-------------------------------
G-----0------0-------0------0---
D---5-----5-------5-------5-----     TE DOY LA GRACIAS?
A------------------------------5
E-7-----8------7--------8-------

AHÍ EMPIZA LA PARTE DEL RASGUEO ES MUY SENCILLO. (con cejillas)

D        B 
Imágenes me recuerdan
D        B 
Cunado todo todo estaba mal
D        B 
Y ahora que estamos juntos
D       B 
Tu y yo

e-------------------------------
B-------------------------------
G-----0------0-------0------0---
D---5-----5-------5-------5-----     TE DOY LA GRACIAS?
A------------------------------5
E-7-----8------7--------8-------


e-------------------------------
B-------------------------------
G-----0------0-------0------0---
D---5-----5-------5-------5-----     Y ASI ESTAREMOS?
A------------------------------5
E-7-----8------7--------8-------

e-----------------------------------
B-----------------------------------
G-----0------0-------0------0-------
D---5-----5-------5-------5---------     TE DOY LA GRACIAS?
A------------------------------5-5-5
E-7-----8------7--------8-----------

Y PARA FINALIZAR OTRA VEZ CON EL RASGEO.

B 
Gracias?
Gracias juntos tu y yo
Gracias?
Gracias juntos tu y yo
Gracias.

CUALQUIER DUDA ESCRIBANME .

            
            
Suggest correction
Creating personal tab
Creating personal tab
You can edit any tab online and save it as your Personal.

You can edit, replace or remove any tab part or add personal notes – all changes will be seen only by you.

Personal tabs can be accessed anytime from any device, even offline.
Learn more »
Give kudos to tab author, rate the tab!
1 2 3 4 5
comments
print report bad tab
guest
Wanna post a correction for this tab? Suggest correction