Oops, an error
Loading. Please wait.

Darkness Before Dawn bass

40 views 1 this week
no commentswrite comment
1 2 3 4 5
3 more votes to show rating
add to favorites
×
Save as Personal and add changes to this tab that will be seen only by you. Learn more ›
×
You can save this tab as Personal to edit and correct it or add notes. All changes will be seen only by you. Learn more »
launch autoscroll
font size
0
reset
guitar tuner
edit
Autoscroll
slow
fast
+/-
esc
set tempo
stop
Credit for tabbing this goes to Anthony Angström of the Killing Joke Guitar Tabs facebook page
https://www.facebook.com/KillingJokeGuitarTabs/

[Verses] 
(Mute the notes ringing)
F|---------------------------------------------------------------------------|
C|---------------------------------------------------------------------------|
G|---------------------3-2/3-------------------------------------------------|
D|-5--3-5--5--3/5--5-3-------------------------------------------------------|

[Alternate Riff] 
(Played sometimes at the end of the bar. Let D-2 ring)
F|---------------------------------------------------------------------------|
C|---------------------------------------------------------------------------|
G|---------------------------------------------------------------------------|
D|-5--3-5--5--3/5-5-3-3-2----------------------------------------------------|

[Chorus] 
(Let ring)
F|---------------------------------------------------------------------------|
C|---------------------------------------------------------------------------|
G|-----8-8-------8-8---------------------------------------------------------|
D|-5-5-----5-5-5-----5-8-8-8-8-7-7-------------------------------------------|

[Post-Chorus Break] 
(Let D-9 ring)
F|---------------------------------------------------------------------------|
C|---------------------------------------------------------------------------|
G|---------------------------------------------------------------------------|
D|-8-8---8-8-8---8-9-9-9-9-9-9-9-9-------------------------------------------|

[Bridge] 
(Mute the notes ringing except D-3 and D-4. Played once towards the end of the song)                 
F|-----------------|    F|----------------------------------------------------|
C|-----------------|    C|----------------------------------------------------|
G|-----------------|    G|----------------------------------------------------|
D|-0-0-0-0-0-0-0-0-|(x7)D|-0-0-0-0-0-0-3-4------------------------------------|

The picking pattern on the verses can be quite difficult to pick up at first(it was for me, anyway), 
but keep at it and you'll get it eventuall


************************************

| /  Slide up

************************************

            
            
Suggest correction
Creating personal tab
Creating personal tab
You can edit any tab online and save it as your Personal.

You can edit, replace or remove any tab part or add personal notes – all changes will be seen only by you.

Personal tabs can be accessed anytime from any device, even offline.
Learn more »
Give kudos to tab author, rate the tab!
1 2 3 4 5
comments
print report bad tab
guest
You may want to rate the tab now too:
select rating
Wanna post a correction for this tab? Suggest correction