Oops, an error
Loading. Please wait.

Love Like Blood bass

version 2
version 2

Whole song

  • Correct tuning, more accurate pre-chorus, neither ... Show more

Interactive

6,080 views 18 this week
12 commentsread comments
1 2 3 4 5
x 6
add to favorites
×
Save as Personal and add changes to this tab that will be seen only by you. Learn more ›
×
You can save this tab as Personal to edit and correct it or add notes. All changes will be seen only by you. Learn more »
launch autoscroll
font size
0
reset
guitar tuner
backing track
0:00
0:00
edit
Autoscroll
slow
fast
+/-
esc
set tempo
stop
This is the main line of the song (intro, verses)

G|-----------------------------------------|
D|-----------------------------------------|
A|-3--3-3-3-3-3-3-3--3--3-3-3-3------5-5-5-|
D|------------------------------3--3-------|

G|---------------------------------------|
D|---------------------------------------|
A|------------------------------0--0-1-1-|
D|-3--3-3-3-3-3-3-3--3--3-3-3-3----------|

This is the bridge between verses and chorus

G|-------------------------------------|
D|-------------------------------------|
A|----------------------------------55-|
D|-0--0-0-0-0-0-0-0--0--0-0-0-0-0-0----|

At 3:40, maybe a piano or a keyboard does a note that sounds very powerful. You can do 
that slapping:

G|-------------------------------------|
D|-------------------------------------|
A|-5--------------------------------55-|
D|-0--0-0-0-0-0-0-0--0--0-0-0-0-0-0----|
   S

Chorus:

G|------------------------------------------------------------------------|
D|------------------------------------------------------------------------|
A|-------------------------------------6--6-6-6-6-6-6-6--6--6-6-6-6-6-6-6-|
D|-3--3-3-3-3-3-3-3--3--3-3-3-3-3-3-3-------------------------------------|

G|------------------------------------------------------------------------|
D|------------------------------------------------------------------------|
A|-5--5-5-5-5-5-5-5--5--5-5-5-5-5-5-5--3--3-3-3-3-3-3-3-------------------|
D|-------------------------------------------------------5--5-5-5-5-5-5-5-|

At 4:41:

G|-------------------------------------------|
D|-------------------------------------------|
A|--3/10-------------------------------------|
D|-------------------------------------------|

Tablature Legend
----------------
/\  - slide into or out of (from/to "nowhere")
S   - slap


            
            
Suggest correction
Creating personal tab
Creating personal tab
You can edit any tab online and save it as your Personal.

You can edit, replace or remove any tab part or add personal notes – all changes will be seen only by you.

Personal tabs can be accessed anytime from any device, even offline.
Learn more »
comments
print report bad tab
12 comments total. Showing first comments.
0 reply
swave75 382 Dec 02, 2012 10:15 AM

Damn good tab dude.

-1 reply
Phuckin Phylean 10 May 10, 2013 03:18 AM

It's always lovely when you post the tuning at the top of each tab chart, especially when it's an alternate tuning like they tend to do! Well done on this one. Five stars indeed!

+1 reply
Alefdeboer 213 Jul 01, 2013 09:19 AM

Nice job!
However, I'd like to post 1 correction. I miss a slight variation at the end of the chorus. When listening carefully, you can hear the bass player makes little improvisations, like transitioning 1 octave. As for the rest this tab looks fine!

guest
You may want to rate the tab now too:
select rating
Wanna post a correction for this tab? Suggest correction