Oops, an error
Loading. Please wait.

Millennium tab

version 2
version 2

Whole song

Interactive

208 views 1 this week
3 commentsread comments
1 2 3 4 5
3 more votes to show rating
add to favorites
×
Save as Personal and add changes to this tab that will be seen only by you. Learn more ›
×
You can save this tab as Personal to edit and correct it or add notes. All changes will be seen only by you. Learn more »
launch autoscroll
font size
0
reset
how to read this tab
guitar tuner
backing track
0:00
0:00
edit
Autoscroll
slow
fast
+/-
esc
set tempo
stop
-------------------------------------------------------------------------------
                           Millennium - Killing Joke
-------------------------------------------------------------------------------

Tabbed by: Ricky Thomson
E-mail: warzone@gmx.co.uk

Tuning: D Standard (DGCFAd)


intro       [x1]
verse       [x3]
pre-chorus  [x1]
chorus      [x2]
post-chorus [x1]
verse       [x2]
pre-chorus  [x1]
chorus      [x2]
bridge      [x1]
chorus      [x4]
post chorus [x1]

-------------------------------------------------------------------------------


[intro]

 d|--------------------------------------------------------|
 A|--------------------------------------------------------|
 F|--------------------------------------------------------|
 C|----------------------------------------------2----2h4--|
 G|-------------------------------------------2h4--2h4-----|
 D|--------------------------------------------------------|


[verse]


pm[  . . .  .  .  . . .  .  .  . . .  .  .  . . . . . . .  ]
 d|--------------------------------------------------------|
 A|--------------------------------------------------------|
 F|--------------------------------------------------------|
 C|--------------------------------------------------------|
 G|--4-4-4--4-----4-4-4--4-----4-4-4--4--------------------|
 D|--2-2-2--2--0--2-2-2--2--0--2-2-2--2--0--3-5-4-3-5-4-3--|


pm[  . . .  .  .  . . .  .  .  . . .  .  .                 ]
 d|--------------------------------------------------------|
 A|--------------------------------------------------------|
 F|--------------------------------------------------------|
 C|-----------------------------------------5------3-------|
 G|--4-4-4--4-----4-4-4--4-----4-4-4--4-----5------3-------|
 D|--2-2-2--2--0--2-2-2--2--0--2-2-2--2--0--3------1-------|


pm[  . . .  .  .  . . .  .  .  . . .  .  .  . . . . . . .  ]
 d|--------------------------------------------------------|
 A|--------------------------------------------------------|
 F|--------------------------------------------------------|
 C|--------------------------------------------------------|
 G|--4-4-4--4-----4-4-4--4-----4-4-4--4--------------------|
 D|--2-2-2--2--0--2-2-2--2--0--2-2-2--2--0--3-5-4-3-5-4-3--|


pm[  . . .  .  .  . . .  .  .  . . .  .  .                 ]
 d|--------------------------------------------------------|
 A|--------------------------------------------------------|
 F|--------------------------------------------------------|
 C|--------------------------------------------2----2h4----|
 G|--4-4-4--4-----4-4-4--4-----4-4-4--4-----2h4--2h4-------|
 D|--2-2-2--2--0--2-2-2--2--0--2-2-2--2--0-----------------|


[pre-chorus]

pm[     . . .  .     . . .  .     . . .  .               ]
d||------------------------------------------------------||
A||------------------------------------------------------||
F||------------------------------------------------------||  x2
C||--5--4-4-4--4--5--4-4-4--4--5--4-4-4--4--5x-----------||  
G||--5--4-4-4--4--5--4-4-4--4--5--4-4-4--4--5x-----------||
D||--3--2-2-2--2--3--2-2-2--2--3--2-2-2--2--3x-----------||


pm[  .  .  .  .  . . .  . . .  .  .  .  .  . . .  . . .  ]
d||------------------------------------------------------||
A||------------------------------------------------------||
F||------------------------------------------------------||  x4
C||------------------------------------------------------||
G||--4--4--4--4--4-4----4-4----4--4--4--4--4-4----4-4----||
D||--2--2--2--2--2-2-0--2-2-0--2--2--2--2--2-2-0--2-2-0--||


[chorus]

d||--------------------------------------------------------------------------------------------------||
A||--------------------------------------------------------------------------------------------------||
F||--------------------------4--4--4--4--4--4--4--4--7--7--7--7--7--7--7--7--------------------------||
C||--4--4--4--4--4--4--4--4--4--4--4--4--4--4--4--4--7--7--7--7--7--7--7--7--7--7--7--7--7--7--5--5--||
G||--4--4--4--4--4--4--4--4--2--2--2--2--2--2--2--2--5--5--5--5--5--5--5--5--7--7--7--7--7--7--5--5--||
D||--2--2--2--2--2--2--2--2--------------------------------------------------5--5--5--5--5--5--3--3--||


[post chorus]

pm[  . . .  . . .  . . .         . . .  . . .  . . .         ]
 d|----------------------------------------------------------|
 A|----------------------------------------------------------|
 F|----------------------------------------------------------|
 C|----------------------------------------------------------|
 G|--4-4-4--4-4-4--4-4-4x--------4-4-4--4-4-4--4-4-4x--------|
 D|--2-2-2--2-2-2--2-2-2x--------2-2-2--2-2-2--2-2-2x--------|


pm[  . . .  . . .  . . .         . . .  . . .                ]
 d|----------------------------------------------------------|
 A|----------------------------------------------------------|
 F|----------------------------------------------------------|
 C|-----------------------------------------------2----2h4---|
 G|--4-4-4--4-4-4--4-4-4x--------4-4-4--4-4-4--2h4--2h4------|
 D|--2-2-2--2-2-2--2-2-2x--------2-2-2--2-2-2----------------|



[bridge]

pm[                                        . . . . . . .    ]  
 d|---------------------------------------------------------|
 A|---------------------------------------------------------|
 F|--6-----------------9-------6-----------6-6-6-6-6-6-6----|  ----.
 C|--6-----------------9-------6-----------6-6-6-6-6-6-6----|       \
 G|--4-----------------7-------4-----------4-4-4-4-4-4-4----|        |
 D|--4-----------------7-------4-----------4-4-4-4-4-4-4----|        |
                                                                     |
                                                                     | x2
pm[                                        . .   . .  . .   ]        |
 d|---------------------------------------------------------|        |
 A|---------------------------------------------------------|        |
 F|--6-----------------9-------6-----------6-6---6-6--6-6---|       /
 C|--6-----------------9-------6-----------6-6---6-6--6-6---|  ----'
 G|--4-----------------7-------4-----------4-4---4-4--4-4---|
 D|--4-----------------7-------4-----------4-4---4-4--4-4---|


pm[     . . .  .     . . .  .     . . .  .               ]
d||------------------------------------------------------||
A||------------------------------------------------------||
F||------------------------------------------------------||  x4
C||--5--4-4-4--4--5--4-4-4--4--5--4-4-4--4--5x-----------||  
G||--5--4-4-4--4--5--4-4-4--4--5--4-4-4--4--5x-----------||
D||--3--2-2-2--2--3--2-2-2--2--3--2-2-2--2--3x-----------||


pm[  .  .  .  .  . . .  . . .  .  .  .  .  . . .  . . .  ]
d||------------------------------------------------------||
A||------------------------------------------------------||
F||------------------------------------------------------||  x8
C||------------------------------------------------------||
G||--4--4--4--4--4-4----4-4----4--4--4--4--4-4----4-4----||
D||--2--2--2--2--2-2-0--2-2-0--2--2--2--2--2-2-0--2-2-0--||



************************************
| x   Mute note
| pm  Palm Mute
| h   Hammer on
************************************

            
            
Suggest correction
Creating personal tab
Creating personal tab
You can edit any tab online and save it as your Personal.

You can edit, replace or remove any tab part or add personal notes – all changes will be seen only by you.

Personal tabs can be accessed anytime from any device, even offline.
Learn more »
Give kudos to tab author, rate the tab!
1 2 3 4 5
comments
print report bad tab
3 comments total.
0 reply
RickyThomson 909 Dec 16, 2015 07:55 AM

By the way, this is the cyberskank edit version as played in the commercial/music video. The version on the album pandemonium has a few extra bars before the chorus parts.

0 reply
RickyThomson 909 Dec 16, 2015 08:03 AM

This is the part before the chorus on the album version:

pm[ . . . . . . . . . . . . ]
d|--------------------------------------------------|
A|--------------------------------------------------|
F|--------------------------------------------------|
C|--5--4-4-4--4--5--4-4-4--4--5--4-4-4--4--5--------|
G|--5--4-4-4--4--5--4-4-4--4--5--4-4-4--4--5--------|
D|--3--2-2-2--2--3--2-2-2--2--3--2-2-2--2--3--------|

0 reply
RickyThomson 909 Aug 01, 2016 06:56 PM

Updated the tab to reflect the studio/album record version.

guest
You may want to rate the tab now too:
select rating
Wanna post a correction for this tab? Suggest correction