Oops, an error
Loading. Please wait.

Youre All Welcome tab

1,611 views 1 this week
no commentswrite comment
1 2 3 4 5
3 more votes to show rating
add to favorites
×
Save as Personal and add changes to this tab that will be seen only by you. Learn more ›
×
You can save this tab as Personal to edit and correct it or add notes. All changes will be seen only by you. Learn more »
launch autoscroll
font size
0
reset
how to read this tab
guitar tuner
edit
Autoscroll
slow
fast
+/-
esc
set tempo
stop
Author
~~~~>|  Band: KILLING THE DREAM          |<~~~~
~~~~>|  Song: You're All Welcome         |<~~~~
~~~~>| Album: Fractures (2008)           |<~~~~
~~~~>|Tuning: (D-A-D-G-B-E)              |<~~~~
~~~~>|Length: 1 min. 9 sec.              |<~~~~
~~~~>|     Transcribed By: Andrew K.     |<~~~~
~~~~>|   E-mail: SaucyRebel@hotmail.com  |<~~~~

Wicked Song.

Lyrics:
And you've got One, eye, One eye opening,
and you're calling out the blind for all that they cannot see.
I hate to disappoint you, but this is how it's always been.
a life spent in the dark. It's just now, you, see!

I never said I'd fucking stay forever,
but when it's time i'll pull the trigger myself.
And if we're going just straight to hell, fuck,
well see you there!

I'm no fucking martyr, I'm just living the time before my turn to die.
because a life lived, pressed under your finger, I'd rather be fucking dead. I 
know who I am, and no one can take that from me, especially not some self-centered fucks, 
what if you're just, like, them? 


~~~~~~~~~~~~~~>|Legend|<~~~~~~~~~~~~~~
| ~ -- Let ring                      |
| s -- Slide to required note        |
| h -- Hammer on                     |
| p -- Pull off                      |
| b -- Bend to required pitch        |
| r -- Bend Return to required pitch |
|< >-- Natural Harmonic              |
~~~~~~~~~~~~~~~~~~~~~~~~~~~~~~~~~~~~~~

~~>|Intro/Verse|<~~

Guitar 1
e-------------------------------------------------------------------------------------|
B-------------------------------------------------------------------------------------|
G---5-5--4-4--5-5--4-4--5-55-5-5--7-77-7-7---5-5--4-4--5-5--4-4-----------------------|
D---5-5--4-4--5-5--4-4--5-55-5-5--7-77-7-7---5-5--4-4--5-5--4-4--5-55-5-5--5-55-5-5---|
A---3-3--2-2--3-3--2-2--5-55-5-5--5-55-5-5---3-3--2-2--3-3--2-2--5-55-5-5--5-55-5-5---|
D----------------------------------------------------------------5-55-5-5--4-44-4-4---|
-
Guitar 2
e-------------------------------------------------------------------------------------|
B------------------------------------------~~~{~~~~~~~~~~~~~~}~-----------------------|
G------------------------------------------~~~{~~ feedback ~~}~~----------------------|
D-------------------------------------------~~{~~~~~~~~~~~~~~}~~~5-55-5-5--5-55-5-5---|
A--------------------------------------------~{~~~~~~~~~~~~~~}~~~5-55-5-5--5-55-5-5---|
D----------------------------------------------------------------5-55-5-5--4-44-4-4---|


Guitar 1
e-------------------------------------------------------------------------------------|
B-------------------------------------------------------------------------------------|
G---5-5--4-4--5-5--4-4--5-55-5-5--7-77-7-7---5-5--4-4--5-5--4-4-----------------------|
D---5-5--4-4--5-5--4-4--5-55-5-5--7-77-7-7---5-5--4-4--5-5--4-4--5-55-5-5--5-55-5-5---|
A---3-3--2-2--3-3--2-2--5-55-5-5--5-55-5-5---3-3--2-2--3-3--2-2--5-55-5-5--5-55-5-5---|
D----------------------------------------------------------------5-55-5-5--4-44-4-4---|
-
Guitar 2
e-------------------------------------------------------------------------------------|
B-------------------------------------------------------------------------------------|
G---5-5--4-4--5-5--4-4--5-55-5-5--7-77-7-7---5-5--4-4--5-5--4-4-----------------------|
D---5-5--4-4--5-5--4-4--5-55-5-5--7-77-7-7---5-5--4-4--5-5--4-4--5-55-5-5--5-55-5-5---|
A---3-3--2-2--3-3--2-2--5-55-5-5--5-55-5-5---3-3--2-2--3-3--2-2--5-55-5-5--5-55-5-5---|
D----------------------------------------------------------------5-55-5-5--4-44-4-4---|


Guitar 1
e--------------------------------------------------------------|
B--------------------------------------------------------------|
G----5--5---4--4---5--5---4--4---5--5-5--5--5--7--7-7---7--7---|
D----5--5---4--4---5--5---4--4---5--5-5--5--5--7--7-7---7--7---|
A----3--3---2--2---3--3---2--2---5--5-5--5--5--5--5-5---5--5---|
D--------------------------------------------------------------|
-
Guitar 2
e--------------------------------------------------------------|
B--------------------------------------------------------------|
G---12-12--11-11--12-12--11-11--12-1212-12-12--15-1515-15-15---|
D----x--x---x--x---x--x---x--x---x--x-x--x--x---x--x-x--x--x---|
A---10-10---9--9--10-12---9--9--12-1212-12-12--12-1212-12-12---|
D--------------------------------------------------------------|


Guitar 1
e----------------------------------------------------------|
B----------------------------------------------------------|
G----5--5---4--4---5--5---4--4------------------------8~---|
D----5--5---4--4---5--5---4--4---5--5-5--5--5--/6-6-6-x----|
A----3--3---2--2---3--3---2--2---5--5-5--5--5--/6-6-6-6~---|
D--------------------------------5--5-5--5--5--/6-6-6------|
-
Guitar 2
e----------------------------------------------------------|
B----------------------------------------------------------|
G---12-12--11-11--12-12--11-11--12-1212-12-12--------------|
D----x--x---x--x---x--x---x--x---x--x-x--x--x--------------|
A---10-10---9--9--10-12---9--9--12-1212-12-12--------------|
D----------------------------------------------------------|



~~>|Bridge/Breakdown|<~~
-
Guitars 1 & 2
e---------------------------------------------------|
B---------------------------------------------------|
G---------------------------------------------------|
D---0~~~~~~~~~~~~~~~~~~~~~~~~~~~~~~~~~~~~~~~~~~~>---|
A---0~~~~~~~~~~~~~~~~~~~~~~~~~~~~~~~~~~~~~~~~~~~>---|
D---0~~~~~~~~~~~~~~~~~~fade out into feedback~~~>---|
   - I never said id fucking stay for - ever -


e--------------------------------------------------------|
B--------------------------------------------------------|
G--------------------------------------------------------|
D---~~~~~~~~~~~~~~~~~~~~~~~~~~~~~~~~~~~~~~~~~~~~~~~~~>---|
A---~f~f~f~e~e~e~d~d~d~b~b~b~a~a~a~c~c~c~k~k~k~~~~~~~>---|
D---~~~~~~~~~~~~~~~~~~~~~~~~~~~~~~~~~~~~~~~~~~~~~~~~~>---|
    - but when it's time i'll pull the trigger myself -


Guitar 1
e-------------------------------------------------------------------------|
B-------------------------------------------------------------------------|
G-------------------------------------------------------------------------|
D---~~~~~~~~~~~~~~~~~~~~~~~~~~~~~~~~~~~~~~~~~~~~~~~~~~~~~~~~~~~~~~~~~~~---|
A---~~~~~~~~~~~f~f~f~e~e~e~d~d~d~b~b~b~a~a~a~c~c~c~k~k~k~~~~~~~~~~~~~~~---|
D---~~~~~~~~~~~~~~~~~~~~~~~~~~~~~~~~~~~~~~~~~~~~~~~~~~~~~~~~~~~~~~~~~~~---|
-
Guitar 2
e-------------------------------------------------------------------------|
B-------------------------------------------------------------------------|
G---6~6~6~6~6~6~6~6~6~6~6~6~6~6~6~6~6~6~6~6~6~6~6~6~6~6~6~6~6~6~6~6~6~6---|
D-------------------------------------------------------------------------|
A-------------------------------------------------------------------------|
D-------------------------------------------------------------------------|
    (bend   up   and   down   and  play   repeatedly   while   bending)
    - and if we're going straight to hell, fuck... well see you there -


~~>|Outro|<~~
-
Guitars 1 & 2
e----------------------------------------------------------------------|\
B----------------------------------------------------------------------| |
G----------------------------------------------------------------------| |X2
D---1-1-1-1-1-1-1-1-1-1-1-0-0-0-0-0--1-1-1-1-1-1-1-1-1-1-1-0-0-0-0-0---| |
A---1-1-1-1-1-1-1-1-1-1-1-0-0-0-0-0--1-1-1-1-1-1-1-1-1-1-1-0-0-0-0-0---| |
D---1-1-1-1-1-1-1-1-1-1-1-0-0-0-0-0--1-1-1-1-1-1-1-1-1-1-1-0-0-0-0-0---|/


Guitar 1
e----------------------------------------------------------------------|
B----------------------------------------------------------------------|
G----------------------------------------------------------------------|
D---1-1-1-1-1-1-1-1-1-1-1-0-0-0-0-0--1-1-1-1-1-1-1-1-1-1-1-0-0-0-0-0---|
A---1-1-1-1-1-1-1-1-1-1-1-0-0-0-0-0--1-1-1-1-1-1-1-1-1-1-1-0-0-0-0-0---|
D---1-1-1-1-1-1-1-1-1-1-1-0-0-0-0-0--1-1-1-1-1-1-1-1-1-1-1-0-0-0-0-0---|
-
Guitar 2
e----------------------------------------------------------------------|
B----------------------------------------------------------------------|
G---8-8-8-8-8-8-8-8-8-8-8-7-7-7-7-7--8-8-8-8-8-8-8-8-8-8-8-7-7-7-7-7---|
D---x-x-x-x-x-x-x-x-x-x-x-x-x-x-x-x--x-x-x-x-x-x-x-x-x-x-x-x-x-x-x-x---|
A---6-6-6-6-6-6-6-6-6-6-6-5-5-5-5-5--6-6-6-6-6-6-6-6-6-6-6-5-5-5-5-5---|
D----------------------------------------------------------------------|


Guitars 1 & 2 (play twice and mess around with feedback and p.m.'s)
e---<12>----------------------------------------------|\
B---<12>----------------------------------------------| |
G---<12>----------------------------------------------| |X2
D-----0~~~~~~~~~~~~~~~~~~~~~~~~~~~~~~~~~~~~~~~~~~~>---| |
A-----0~~~~~~~~~~~~~~~~~~~~~~~~~~~~~~~~~~~~~~~~~~~>---| |
D-----0~~~~~~~~~~~~~~~~~~fade out into feedback~~~>---|/


~~>|END|<~~

            
            
Suggest correction
Creating personal tab
Creating personal tab
You can edit any tab online and save it as your Personal.

You can edit, replace or remove any tab part or add personal notes – all changes will be seen only by you.

Personal tabs can be accessed anytime from any device, even offline.
Learn more »
Give kudos to tab author, rate the tab!
1 2 3 4 5
comments
print report bad tab
guest
You may want to rate the tab now too:
select rating
Wanna post a correction for this tab? Suggest correction