Oops, an error
Loading. Please wait.

End Of A Heartache tab

version 2
version 2

Whole song

13,087 views 1 this week
7 commentsread comments
1 2 3 4 5
x 3
add to favorites
×
Save as Personal and add changes to this tab that will be seen only by you. Learn more ›
×
You can save this tab as Personal to edit and correct it or add notes. All changes will be seen only by you. Learn more »
launch autoscroll
font size
0
reset
how to read this tab
guitar tuner
edit
Autoscroll
slow
fast
+/-
esc
set tempo
stop
Intro:
guitar 1:

D|-1---1---1---1---3----1---1---1---1---3-----------------|
A|--5---5---5---5---5----5---5---5---5---5----------------|
F|---5---5---5---5---5----5---5---5---5---5---------------|
C|--------------------------------------------------------|
G|--------------------------------------------------------|
C|--------------------------------------------------------|

guitar 2:

D|--------------------------------------------------------|
A|--------------------------------------------------------|
F|--------------------------------------------------5-----|
C|-0------------------------------------------------5-----|
G|-0------------------------------------------------3-----|
C|-0------------------------------------------------------|

Ive listened to the song over and over and
i think everything after the intro is accurate
from (version 5)

Verse 1:
guitar 1: (same as Intro)

guitar 2:

D|--------------------------------------------------------------------|
A|--------------------------------------------------------------------|
F|-----------------------10\9-5/7--------------------------10\9-5-----|
C|--------------------------------------------------------------------|
G|-0-0-0-0--0-0-0-0-0----8-\7-3/5----0-0-0-0--0-0-0-0-0----8-\7-3-----|
C|-0-0-0-0--0-0-0-0-0----------------0-0-0-0--0-0-0-0-0---------------|

D|--------------------------------------------------------------------|
A|--------------------------------------------------------------------|
F|-----------------------10\9-5/7-------------------------------------|
C|--------------------------------------------------------------------|
G|-8-8-8-8--8-8-8-8-8----8-\7-3/5----8-8-8-8--8-8-8-8-8----8/10-10----|
C|-8-8-8-8--8-8-8-8-8----------------8-8-8-8--8-8-8-8-8----8/10-10----|

Bridge 1:
guitar 1&2:

D|------------------------------------------------------------------------|
A|------------------------------------------------------------------------|
F|------------------------------------------------------------------------|
C|------------------------------------------------------------------------|
G|-0-0-0-0--0-0-0-0-0-0-0--0-0-0-0-0-0-0--0-0-0---------------------------|
C|-0-0-0-0--0-0-0-0-0-0-0--0-0-0-0-0-0-0--0-0-0-7h10p7h10p7-6h9p6h9p6-----|

D|------------------------------------------------------------------------|
A|------------------------------------------------------------------------|
F|------------------------------------------------------------------------|
C|------------------------------------------------------------------------|
G|-0-0-0-0--0-0-0-0-0-0-0--0-0-0-0-0-0-0--0-0-0-5h8p5h8p5-4h7p4h7p4-------|
C|-0-0-0-0--0-0-0-0-0-0-0--0-0-0-0-0-0-0--0-0-0---------------------------|

D|--------------|
A|--------------|
F|--------------|   2nd time
C|--------------|
G|-8/10-10-10---|
C|-8/10-10-10---|

Verse 2:
guitar 1:

D|--------------------------------------------------------------------|
A|--------------------------------------------------------------------|
F|-----------------------10\9-5/7--------------------------10\9-5-----|
C|--------------------------------------------------------------------|
G|-0-0-0-0--0-0-0-0-0----8-\7-3/5----0-0-0-0--0-0-0-0-0----8-\7-3-----|
C|-0-0-0-0--0-0-0-0-0----------------0-0-0-0--0-0-0-0-0---------------|

guitar 2:

D|--------------------------------------------------------------------|
A|--------------------------------------------------------------------|
F|-----------------------14\12-9/10------------------------14\12-9----|
C|--------------------------------------------------------------------|
G|-0-0-0-0--0-0-0-0-0----12\10-7/8---0-0-0-0--0-0-0-0-0----12\10-7----|
C|-0-0-0-0--0-0-0-0-0----------------0-0-0-0--0-0-0-0-0---------------|

D|---------------|
A|---------------|
F|---------------|   2nd time
C|---------------|
G|--8/10-10-10---|
C|--8/10-10-10---|

Bridge 1

Chorus:
guitar 1&2:

D|--------------------------------------------------|
A|-10-10-10-10-10-10-10-10-10-10-10-10-10-10-10-10--|
F|-10-10-10-10-10-10-10-10-10-10-10-10-10-10-10-10--|
C|-8--8--8--8--8--8--8--8--8--8--8--8--8--8--8--8---|
G|-8--8--8--8--8--8--8--8--8--8--8--8--8--8--8--8---|
C|-8--8--8--8--8--8--8--8--8--8--8--8--8--8--8--8---|

D|--------------------------------------------------|
A|-10-10-10-10-10-10-10-10-10-10-10-10-10-10-10-10--|
F|-10-10-10-10-10-10-10-10-10-10-10-10-10-10-10-10--|
C|-0--0--0--0--0--0--0--0--0--0--0--0--0--0--0--0---|
G|-0--0--0--0--0--0--0--0--0--0--0--0--0--0--0--0---|
C|-0--0--0--0--0--0--0--0--0--0--0--0--0--0--0--0---|

D|--------------------------------------------------|
A|--------------------------------------------------|
F|-12-12-12-12-12-12-12-12-12-12-12-12-12-14-12-9---|
C|-10-10-10-10-10-10-10-10-10-10-10-10-10-12-10-7---|
G|-10-10-10-10-10-10-10-10-10-10-10-10-10-12-10-7---|
C|-10-10-10-10-10-10-10-10-10-10-10-10-10-12-10-7---|

D|--------------------------------------------------|
A|-10-10-10-10-10-10-10-10-12-12-12-12-12-12-12-12--|
F|-10-10-10-10-10-10-10-10-12-12-12-12-12-12-12-12--|
C|-8--8--8--8--8--8--8--8--10-10-10-10-10-10-10-10--|
G|-8--8--8--8--8--8--8--8--10-10-10-10-10-10-10-10--|
C|-8--8--8--8--8--8--8--8--10-10-10-10-10-10-10-10--|

Interlude:
guitar 1: (same as verse)

guitar 2:

D|-------------------------------------------------------------------|
A|-------------------------------------------------------------------|
F|-------------------------------------------------------------------|
C|-0-0-10-0-8-0-10-0-8-0-7-0-8-0-7-0-5-0-7-0-5-0-3-0-5-0-3-0-2-0-3/5-|
G|-------------------------------------------------------------------|
C|-------------------------------------------------------------------|
  
D|-------------------------------------------------------------------|
A|-------------------------------------------------------------------|
F|---------------------------------------------------------------2*--|
C|-0-0-10-0-8-0-10-0-8-0-7-0-8-0-7-0-5-0-7-0-5-0-3-0-5-0-3-0-2-0-----|
G|-------------------------------------------------------------------|
C|-------------------------------------------------------------------|

Verse 2

Bridge 1

Chorus

Bridge 2:
guitar 1&2:

D|------------------------------------------------------|
A|------------------------------------------------------|
F|------------------------------------------------------|
C|------------------------------------------------------|
G|-----------------0--0-0-0--0-0-0-1--0-0-0-0-0-1-------|
C|-/5--0-5-0-3--0--0--0-0-0--0-0-0-1--0-0-0-0-0-1--0----|

D|------------------------------------------------------|
A|------------------------------------------------------|
F|------------------------------------------------------|
C|------------------------------------------------------|
G|-----------------0--0-0-0--0-0-0-1--0-0--0-0-0--------|
C|-/5--0-5-0-3--0--0--0-0-0--0-0-0-1--0-0--0-0-0--0-----|

D|-----|------|-----|
A|-----|------|-----|
F|--7--|--10--|--7--| during double-bass
C|-----|------|-----|
G|--5--|--8---|--5--|
C|-----|------|-----|

Clean:
guitar 1:

D|------------------------------------------------------------------|
A|---11--11--11--11--11--11--11--11--10--10--10--10--10--10--10--10-|
F|-10--10--10--10--10--10--10--10---7---7---7---7---7---7---7---7---|
C|------------------------------------------------------------------|
G|------------------------------------------------------------------|
C|------------------------------------------------------------------|

D|------------------------------------------------------------------|
A|--8---8---8---8---8---8---8---8----11--11--11--11--11--11--11--11-|
F|-5---5---5---5---5---5---5---5---10--10--10--10--10--10--10--10---|
C|------------------------------------------------------------------|
G|------------------------------------------------------------------|
C|------------------------------------------------------------------|

guitar 2: (chorus clean)

Chorus
guitar 2:

D|------|------|------|------|------|
A|--11--|--10--|--8---|--11--|--13--|
F|------|------|------|------|------| 
C|--8---|--7---|--5---|--8---|--10--|
G|------|------|------|------|------|
C|------|------|------|------|------|

Thanks for viewing

            
            
Suggest correction
Creating personal tab
Creating personal tab
You can edit any tab online and save it as your Personal.

You can edit, replace or remove any tab part or add personal notes – all changes will be seen only by you.

Personal tabs can be accessed anytime from any device, even offline.
Learn more »
Give kudos to tab author, rate the tab!
1 2 3 4 5
comments
print report bad tab
7 comments total. Showing first comments.
+1 reply
Nightgoat 16 Apr 08, 2008 12:17 PM

no one seems to like your tab so i'm gunna rate it, haven't looked at it but still :D i think a 5 star will sufice

-1 reply
Cold_Silence 52 Apr 09, 2008 03:53 AM

how come nobody likes it????

maybe the intro???

+1 reply
YamiJoey 40 May 31, 2008 06:24 AM

That, and the fact that it's exactly the same as the other one parting that and a comment after the intro and right at the end.

YJ

guest
You may want to rate the tab now too:
select rating
Wanna post a correction for this tab? Suggest correction