Oops, an error
Loading. Please wait.
We have an official Holy Diver tab made by UG professional guitarists. Check out the tab »
×
68,958 views 42 this week
15 commentsread comments
1 2 3 4 5
x 14
add to favorites
×
Save as Personal and add changes to this tab that will be seen only by you. Learn more ›
×
You can save this tab as Personal to edit and correct it or add notes. All changes will be seen only by you. Learn more »
launch autoscroll
font size
0
reset
how to read this tab
guitar tuner
backing track
0:00
0:00
edit
Autoscroll
slow
fast
+/-
esc
set tempo
stop
Author
e|------------------------------------10-12-13-12h13p12p10--10---------------|
B|---13B-----------------------------x--------------------13--13B15~---------|
G|---12B------10h12p10---10~--------x----------------------------------------|
D|--------------------12----------12-----------------------------------------|
A|---------------------------------------------------------------------------|
E|---------------------------------------------------------------------------|

e|---10---10-12-13--12-13-15--13-15-17--15-17-18-18B20----17-----17~---------|
B|-----------------------------------------------------------15--------------|
G|---------------------------------------------------------------------------|
D|---------------------------------------------------------------------------|
A|---------------------------------------------------------------------------|
E|---------------------------------------------------------------------------|

[Sweepy Part](kind of)
e|-------13-17p13-------------------------|
B|-----15--------15-----------------------|
G|---14------------14----9h10p9-----------|
D|-----------------------------12p10h12---|
A|----------------------------------------|
E|----------------------------------------|

[Next Part]
e|---------------------------------------------------------------------------|
B|----------------------------------13*B15R10--13-10-12-10--10---------------|
G|---12B--12BR10----12*B--12*BR10-------------------------13--13-10-12-10----|
D|--------------12---------------12--------------------------------------12--|
A|---------------------------------------------------------------------------|
E|---------------------------------------------------------------------------|

e|---------------------------------------------------------------------------|
B|-----------------------------------------15-----15-----15-----15-----15----|
G|---10-13-12-10-10-12-13-12-12-10h12p10-----14-13--14-13--14-13--14-13--14--|
D|--------------12----------------------12~----------------------------------|
A|---------------------------------------------------------------------------|
E|---------------------------------------------------------------------------|

e|-------------------------------------------------------|
B|---15--------15B17R15-13-15-----13-13------------------|
G|-----14-13-14--------------14-14-----10-10-9-9-10p9----|
D|-------------------------------------------------------|
A|-------------------------------------------------------|
E|-------------------------------------------------------|

[Harmony](Left ear)
e|---5h6p5------5h6p5-----5h8p5---------------|
B|--------8-6-5------8-6-5-----8-6------------|
G|-------------7----------7-------------------|(X4)
D|--------------------------------------------|
A|--------------------------------------------|
E|--------------------------------------------|

[Harmony](Right ear)
e|---8h10p8---------8h10p8----------8h12p8------------|
B|---------11-10-8--------11-10-8---------11-10-------|
G|----------------10--------------10------------------|(X4)
D|----------------------------------------------------|
A|----------------------------------------------------|
E|----------------------------------------------------|

************************************

| h  Hammer-on
| p  Pull-off
| x  Dead note
| ~  Vibrato

************************************

            
            
Suggest correction
Creating personal tab
Creating personal tab
You can edit any tab online and save it as your Personal.

You can edit, replace or remove any tab part or add personal notes – all changes will be seen only by you.

Personal tabs can be accessed anytime from any device, even offline.
Learn more »
comments
print report bad tab
15 comments total. Showing first comments.
+5 reply
ishmonkey 84 Jun 28, 2009 12:17 PM

good stuff dead on

+3 reply
gibsondude555 35 Jun 29, 2009 11:39 AM

yea, i just slowed it down on windows media player:)

+4 reply
bfmvrock 80 Jul 04, 2009 02:05 AM

dude spot on

guest
You may want to rate the tab now too:
select rating
Wanna post a correction for this tab? Suggest correction