Oops, an error
Loading. Please wait.
We have an official My Last Serenade tab made by UG professional guitarists. Check out the tab »
×
128,153 views 96 this week
18 commentsread comments
1 2 3 4 5
x 38
add to favorites
×
Save as Personal and add changes to this tab that will be seen only by you. Learn more ›
×
You can save this tab as Personal to edit and correct it or add notes. All changes will be seen only by you. Learn more »
launch autoscroll
font size
0
reset
how to read this tab
guitar tuner
backing track
0:00
0:00
edit
Autoscroll
slow
fast
+/-
esc
set tempo
stop
Song: My Last Serenade
Artist: Killswitch Engage
Album: Alive or Just Breathing
Tabbed by: Christian / silent_warrior_@hotmail.com


Tuning - C G C F A D


 [Intro] (clean)
D|-----1-----0-----1-|
A|----3-----1-----1--|
F|---2-----x-----3---|
C|--0-----3-----3----|
G|-0-----3-----1-----|
C|-------------------|


 Distortion
D|---------------------------------------|
A|---------------------------------------|
F|---------------------------------------| x4
C|-4\0-0-0-4\0-0-0-4\0--0-0--0-0-0-0-0-0-|
G|-4\0-0-0-4\0-0-0-4\0--0-0--0-0-0-0-0-0-|
C|-4\0-0-0-4\0-0-0-4\0--0-0--0-0-0-0-0-0-|
PM    - -     - -      - -  - - - - - -


[Verse]
D|-------------------------------------------------------|
A|-------------------------------------------------------|
F|---------------------------------------------3---------| x4
C|-3\0-0-1-3-1-0--0-1-3-1-0---3\0-0-1-3-1-0--0-3-0-3-0-5-|
G|-3\0-0-1-3-1-0--0-1-3-1-0---3\0-0-1-3-1-0--0-1-0-3-0-5-|
C|-3\0-0-1-3-1-0--0-1-3-1-0---3\0-0-1-3-1-0--0---0-3-0-5-|
PM    - - - -    - - - -         - - - -    -   -   -
  

 Distortion
D|---------------------------------------|
A|---------------------------------------|
F|---------------------------------------| x4
C|-4\0-0-0-4\0-0-0-4\0--0-0--0-0-0-0-0-0-|
G|-4\0-0-0-4\0-0-0-4\0--0-0--0-0-0-0-0-0-|
C|-4\0-0-0-4\0-0-0-4\0--0-0--0-0-0-0-0-0-|
PM    - -     - -      - -  - - - - - -


[Pre-Chorus]
D|-------------------------------------------------------------------|
A|-------------------------------------------------------------------|
F|------------------------------------------10-9-7-9-5/7-5-3/5-3-----| x4
C|-(3)-0--0-0-0--0-0-3\0--0-0-3\0--0-0-3\0--10-9-7-9-5/7-5-3/5-3-0h3-|
G|-(3)-0--0-0-0--0-0-3\0--0-0-3\0--0-0-3\0--8--7-5-7-3/5-3-1/3-1-0h3-|
C|-(3)-0--0-0-0--0-0-3\0--0-0-3\0--0-0-3\0-----------------------0h3-|
PM       - - -  - -      - -      - -
 

[Chorus]
D|-----------------------------------------------------------------|
A|-6-6-6-6--5-5-5--6-6-6-6--5-5-5--6-6-6-6-------------------------|
F|-5-5-5-5--5-5-5--5-5-5-5--5-5-5--5-5-5-5-------------------------| x4
C|-3-3-3-3--3-3-3--3-3-3-3--3-3-3--3-3-3-3--0-0--2-3-2--0-0--0-2-3-|
G|-3-3-3-3--3-3-3--3-3-3-3--3-3-3--3-3-3-3-------------------------|
C|-----------------------------------------------------------------|
PM                                         - -         - -


[Bridge]
D|----------------------------------------------------------------------|         
A|----------------------------------------------------------------------|        
F|----------------------------------------------------------------------| x4      
C|-(0-0)--10-12--------0-0-0-0-0-0-0---0-0-0-0-0-0-0---0-0-0-0-0-0-0--0-|        
G|-(0-0)--------10-----0-0-0-0-0-0-0---0-0-0-0-0-0-0---0-0-0-0-0-0-0--0-|       
C|-(0-0)-----------8~--0-0-0-0-0-0-0---0-0-0-0-0-0-0---0-0-0-0-0-0-0--0-|        
PM - -                - - - - - - -   - - - - - - -   - - - - - - -


 [Verse] - Guitar 1
D|-------------------------------------------------------|
A|-------------------------------------------------------|
F|---------------------------------------------3---------| x4
C|-3\0-0-1-3-1-0--0-1-3-1-0---3\0-0-1-3-1-0--0-3-0-3-0-5-|
G|-3\0-0-1-3-1-0--0-1-3-1-0---3\0-0-1-3-1-0--0-1-0-3-0-5-|
C|-3\0-0-1-3-1-0--0-1-3-1-0---3\0-0-1-3-1-0--0---0-3-0-5-|
PM    - - - -    - - - -         - - - -    -   -   -


 [Verse] - Guitar 2 (not sure about this part)
D|---------------------------------------------------|
A|-3-3-3-3-3-3-3-3--6-6-6-6-6-6-6-6--3-3-3-3-3-3-3-3-|
F|---------------------------------------------------| x1
C|-0-0-0-0-0-0-0-0--3-3-3-3-3-3-3-3--0-0-0-0-0-0-0-0-|
G|---------------------------------------------------|
C|---------------------------------------------------|

   
[Verse]
D|-------------------------------------------------------|
A|-------------------------------------------------------|
F|---------------------------------------------3---------| x4
C|-3\0-0-1-3-1-0--0-1-3-1-0---3\0-0-1-3-1-0--0-3-0-3-0-5-|
G|-3\0-0-1-3-1-0--0-1-3-1-0---3\0-0-1-3-1-0--0-1-0-3-0-5-|
C|-3\0-0-1-3-1-0--0-1-3-1-0---3\0-0-1-3-1-0--0---0-3-0-5-|
PM    - - - -    - - - -         - - - -    -   -   -


[Pre-Chorus]
D|-------------------------------------------------------------------|
A|-------------------------------------------------------------------|
F|------------------------------------------10-9-7-9-5/7-5-3/5-3-----| x4
C|-(3)-0--0-0-0--0-0-3\0--0-0-3\0--0-0-3\0--10-9-7-9-5/7-5-3/5-3-0h3-|
G|-(3)-0--0-0-0--0-0-3\0--0-0-3\0--0-0-3\0--8--7-5-7-3/5-3-1/3-1-0h3-|
C|-(3)-0--0-0-0--0-0-3\0--0-0-3\0--0-0-3\0-----------------------0h3-|
PM       - - -  - -      - -      - -


 [Chorus / Outro]
D|-----------------------------------------------------------------|     |------|
A|-6-6-6-6--5-5-5--6-6-6-6--5-5-5--6-6-6-6-------------------------|     |------|
F|-5-5-5-5--5-5-5--5-5-5-5--5-5-5--5-5-5-5-------------------------| x2  |------| x1 (Last note)
C|-3-3-3-3--3-3-3--3-3-3-3--3-3-3--3-3-3-3--0-0--2-3-2--0-0--0-2-3-|     |--10--|
G|-3-3-3-3--3-3-3--3-3-3-3--3-3-3--3-3-3-3-------------------------|     |---8--|
C|-----------------------------------------------------------------|     |---8--|
PM                                         - -         - -



************************************

\ - Slide Down
/ - Slide Up
PM - Palm mute
h - Hammer on
~ - Vibrato
( ) - Play the first time only  

************************************

            
            
Suggest correction
Creating personal tab
Creating personal tab
You can edit any tab online and save it as your Personal.

You can edit, replace or remove any tab part or add personal notes – all changes will be seen only by you.

Personal tabs can be accessed anytime from any device, even offline.
Learn more »
comments
print report bad tab
18 comments total. Showing first comments.
+1 reply
jimmy_hill1001 0 Nov 13, 2002 07:00 PM

Pre-chorus
|-------------------------------------
|-------------------------------------
|-------------------------------------
|--12-12-12/12-9/7-7/5----------------
|--10-9--9-/10-7/5-5/3-5-2------------
|----------------------3-0-0-0-0-0-0-0

i cant be bothered do any more but everything is wrong on this tab.

0 reply
Bassman13 230 Sep 27, 2004 08:00 PM

Chorus
|----------------------------------------------------|
|-6-6-6-6--5-5-5--6-6-6-6----------------------------|
|-5-5-5-5--5-5-5--5-5-5-5----------------------------|
|-3-3-3-3--3-3-3--3-3-3-3----------------------------|
|-3-3-3-3--3-3-3--3-3-3-3---------7-8p7------3---7h8-|
|----------------------------0-0--------0-0----------|
- - - - pm
the end of the chorus was a bit off, this sounds much better

-1 reply
ibanezeric82 103 Feb 21, 2006 12:12 PM

THIS IS THE REAL CHORUS.

Chorus (Guitar1) *Fill*
|-----------------5-5-5-5-5-5-5-5-1010101010101010-|------------------| x 4
|-0-0-0-0-0-0-0-0-5-5-5-5-5-5-5-5-1010101010101010-|----2-3p2-----2h3-|
|-0-0-0-0-0-0-0-0-3-3-3-3-3-3-3-3-8-8-8-8-8-8-8-8--|------------3-----|
|-0-0-0-0-0-0-0-0-----------------8-8-8-8-8-8-8-8--|-03------03-------|
.. ..
Chorus (Guitar 2) *Fill*
|-5h6-6-66-5555-5h6-6-66-5555-5h6-6-66-6666--------|
|-5---5-55-5555-5---5-55-5555-5---5-55-5555--------|------------------| x 4
|-0---0-00-0000-0---0-00-0000-0---0-00-0000--------|----2-3p2-----2h3-|
|--------------------------------------------------|------------3-----|
|--------------------------------------------------|-03------03-------|

guest
You may want to rate the tab now too:
select rating
Wanna post a correction for this tab? Suggest correction