Oops, an error
Loading. Please wait.

The End Of Heartache tab

version 5
version 5

Whole song

5,901 views 3 this week
8 commentsread comments
1 2 3 4 5
x 5
add to favorites
×
Save as Personal and add changes to this tab that will be seen only by you. Learn more ›
×
You can save this tab as Personal to edit and correct it or add notes. All changes will be seen only by you. Learn more »
launch autoscroll
font size
0
reset
how to read this tab
guitar tuner
backing track
0:00
0:00
edit
Autoscroll
slow
fast
+/-
esc
set tempo
stop
Band: Killswitch Engage              .. - palm mute   ~ - let note ring
Song: The End Of Heartache            \ - slide down   / - slide up
Album: The End Of Heartache          ^ half bend      *^ - harmonic and bend
Tabbed by : Killswitch_Mike                                        (squweel)

                                      h - hammer-on      p -  pull off

Intro :

Guitar 1

D|-----------------------------------------------------|
A|-----------------------------------------------------|
F|---10-9---10-9---10-9---12-9---10-9---10-9---10-9----|
C|-------10------10-----10----10-----10------10-----10-|
G|-----------------------------------------------------|
C|-----------------------------------------------------|
          .      .      .      .      .      .      .

Guitar 2

D|----------------------------------------------|
A|----------------------------------------------|
F|----------------------------------------------|
C|-----0~--10~--0~----10~~----------------------|
G|-----0~--10~--0~----10~~----------------------|
C|-----0~--10~--0~----10~~----------------------|

verse: Guitar 1

D|-----------------------------------------------------|
A|-----------------------------------------------------|
F|---10-9---10-9---10-9---12-9---10-9---10-9---10-9----|
C|-------10------10-----10----10-----10------10-----10-|
G|-----------------------------------------------------|
C|-----------------------------------------------------|
          .      .      .      .      .      .      .




Guitar 2

D|---------------------------------------------------------
A|---------------------------------------------------------
F|---------------------------------------------------------
C|--00000000-------------00000000--------88888888----------
G|--00000000--8-7--------00000000--8-7---88888888--8-7-----
C|--00000000------10-12--00000000-----10-88888888-----10-12   continue...
    ........             ........        ........

D|--------------------|
A|--------------------|      ^^^^^^^^^^^
F|--------------------|   <<  Repeat all
C|--88888888----------|
G|--88888888----------|
C|--88888888---8\10\12|
    ........



D|-----------------------------------|         |------------|
A|-----------------------------------|         |------------|
F|-----------------------------------|   x 4   |------------|
C|-000000-0000000-000000--000--------| (end on |------------|
G|-000000-0000000-000000--000--------| this 4th|------------|
C|-000000-0000000-000000--000-7-6^---|  time)  |---8\10\12--|
   ...... ....... ......  ... 

Chorus: ( the spacing is hard to lay out but the chords are played fast)
Both Guitars

D|------------------------------------------------
A|------------------------------------------------
F|-10-10-10-10-10-10-10-10-10-10-10-10-10-10-10---
C|--8--8--8--8--8--8--8--8--8--8--8--8--8--8--8---
G|--8--8--8--8--8--8--8--8--8--8--8--8--8--8--8---
C|--8--8--8--8--8--8--8--8--8--8--8--8--8--8--8---   then play ...

D|-----------------------------------------------
A|-----------------------------------------------
F|-10-10-10-10-10-10-10-10-10-10-10-10-10-10-10--
C|--0--0--0--0--0--0--0--0--0--0--0--0--0--0--0--
G|--0--0--0--0--0--0--0--0--0--0--0--0--0--0--0--
C|--0--0--0--0--0--0--0--0--0--0--0--0--0--0--0--



D|------------------------------------------------|
A|------------------------------------------------|
F|------------------------------------------------|
C|--10-10-10-10-10-10-10-10-12-12-12-12-12-12-12--|
G|--10-10-10-10-10-10-10-10-12-12-12-12-12-12-12--|
C|--10-10-10-10-10-10-10-10-12-12-12-12-12-12-12--|

Fill:  

D|---------|
A|---------|
F|---------|
C|---------|
G|---------|
C|---12/---|

Verse: Guitar 1

D|------------------------------| D|------------------------------| 
A|------------------------------| A|------------------------------| 
F|------------------------------| F|------------------------------|
C|--00-12-00-10-00-9-00-7-00-8--| C|--00-12-00-10-00-9-00-7-00-8--| x 2
G|------------------------------| G|------------------------------|
C|------------------------------| C|------------------------------|
   ..  . ..  .  .. . .. . .. .



Guitar 2

D|--------------------------------------------------------------
A|--------------------------------------------------------------
F|--------------------------------------------------------------
C|--00000000-------------00000000-------------88888888----------
G|--00000000--8-7--------00000000--8-7----3*^-88888888--8-7-----
C|--00000000------10-12--00000000-----10------88888888-----10-12   
    ........             ........             ........

D|-------------------------|
A|-------------------------|      
F|-------------------------|   
C|--88888888---------------|
G|--88888888------------3*^|
C|--88888888---8\10\12-----|
    ........

D|---------------------------------------------------------
A|---------------------------------------------------------
F|---------------------------------------------------------
C|--00000000-------------00000000--------88888888----------
G|--00000000--8-7--------00000000--8-7---88888888--8-7-----
C|--00000000------10-12--00000000-----10-88888888-----10-12   continue...
    ........             ........        ........

D|--------------------|
A|--------------------|      ^^^^^^^^^^^
F|--------------------|   <<  Repeat all
C|--88888888----------|
G|--88888888----------|
C|--88888888---8\10\12|
    ........


D|-----------------------------------|         |------------|
A|-----------------------------------|         |------------|
F|-----------------------------------|   x 4   |------------|
C|-000000-0000000-000000--000--------| (end on |------------|
G|-000000-0000000-000000--000--------| this 4th|------------|
C|-000000-0000000-000000--000-7-6^---|  time)  |---8\10\12--|
   ...... ....... ......  ... 


Chorus: ( the spacing is hard to lay out but the chords are played fast)
Both Guitars

D|------------------------------------------------
A|------------------------------------------------
F|-10-10-10-10-10-10-10-10-10-10-10-10-10-10-10---
C|--8--8--8--8--8--8--8--8--8--8--8--8--8--8--8---
G|--8--8--8--8--8--8--8--8--8--8--8--8--8--8--8---
C|--8--8--8--8--8--8--8--8--8--8--8--8--8--8--8---   then play ...

D|-----------------------------------------------
A|-----------------------------------------------
F|-10-10-10-10-10-10-10-10-10-10-10-10-10-10-10--
C|--0--0--0--0--0--0--0--0--0--0--0--0--0--0--0--
G|--0--0--0--0--0--0--0--0--0--0--0--0--0--0--0--
C|--0--0--0--0--0--0--0--0--0--0--0--0--0--0--0--

D|------------------------------------------------|
A|------------------------------------------------|
F|------------------------------------------------|
C|--10-10-10-10-10-10-10-10-12-12-12-12-12-12-12--|
G|--10-10-10-10-10-10-10-10-12-12-12-12-12-12-12--|
C|--10-10-10-10-10-10-10-10-12-12-12-12-12-12-12--|

fill:

D|--------------------------------------------------------------------|
A|--------------------------------------------------------------------|
F|--------------------------------------------------------------------|
C|------------------------------------------------0-1-----------0-1---|
G|-----------------------0------0---0-0-0----0-0--0-1--0-0-0-0--0-1---|
C|---5h6p5--0--5--0--3~--0------0---0-0-0----0-0--0-1--0-0-0-0--0-1---|
            .            .      .   . . .    . .  . .  . . . .  . .

Clean riff:

D|--------------------------------------------------------------------|
A|---3---3---3---3---3---3---3---3----2---2---2---2---2---2---2---2---|
F|---3---3---3---3---3---3---3---3----2---2---2---2---2---2---2---2---|
C|---0---0---0---0---0---0---0---0----0---0---0---0---0---0---0---0---|
G|--------------------------------------------------------------------|
C|--------------------------------------------------------------------|

D|------------------------------------------------------8---8---8---8---|
A|------------------------------------------------------x---x---x---x---|
F|---0---0---0---0---0---0---0---0----3---3---3---3-----5---5---5---5---|
C|---0---0---0---0---0---0---0---0----0---0---0---0---0---0---0---0-----|
G|----------------------------------------------------------------------|
C|----------------------------------------------------------------------|


fill:

D|--------------------------|
A|--------------------------|
F|--------------------------|
C|<<<<<<<<<<<<<<<<<<<<<<<<<<|
G|<<<<<<<<<<<<<<<<<<<<<<<<<<|
C|<<<<<<<<<<<<<<<<<<<<<<<<<<|


Chorus Outro: ( the spacing is hard to lay out but the chords are played fast)
Both Guitars

D|------------------------------------------------
A|------------------------------------------------
F|-10-10-10-10-10-10-10-10-10-10-10-10-10-10-10---
C|--8--8--8--8--8--8--8--8--8--8--8--8--8--8--8---
G|--8--8--8--8--8--8--8--8--8--8--8--8--8--8--8---
C|--8--8--8--8--8--8--8--8--8--8--8--8--8--8--8---   then play ...

D|-----------------------------------------------
A|-----------------------------------------------
F|-10-10-10-10-10-10-10-10-10-10-10-10-10-10-10--
C|--0--0--0--0--0--0--0--0--0--0--0--0--0--0--0--
G|--0--0--0--0--0--0--0--0--0--0--0--0--0--0--0--
C|--0--0--0--0--0--0--0--0--0--0--0--0--0--0--0--

D|------------------------------------------------|
A|------------------------------------------------|
F|------------------------------------------------|
C|--10-10-10-10-10-10-10-10-12-12-12-12-12-12-12--|
G|--10-10-10-10-10-10-10-10-12-12-12-12-12-12-12--|
C|--10-10-10-10-10-10-10-10-12-12-12-12-12-12-12--|


Outro: end on this

D|------------|
A|------------|          There you are the end of heartache,awesome song
F|------------|              PLEASE RATE! (corrections email to me plz)
C|--0000-00000|
G|--0000-00000|
C|--0000-00000|
    .... .....

            
            
Suggest correction
Creating personal tab
Creating personal tab
You can edit any tab online and save it as your Personal.

You can edit, replace or remove any tab part or add personal notes – all changes will be seen only by you.

Personal tabs can be accessed anytime from any device, even offline.
Learn more »
comments
print report bad tab
8 comments total. Showing first comments.
0 reply
Cone 21 30 Dec 20, 2005 08:21 AM

dude, how dare you have a name like Killswitch_mike if you can't even tab out one of Killswitch Engage's best songs.

0 reply
killswitch_mike 785 Dec 20, 2005 08:22 AM

i'd like to see you try better at it considering you ummm let me see.. no tabs on here, at least i ****ing try

0 reply
korn_flea 51 Dec 20, 2005 08:41 AM

Cone21 that is pretty harsh considering you have no tabs, if your so confident that it sucks do your own, and why dont you actually say whats wrong with it? i only see a few minor mistakes, im giving it a four star, pretty good

guest
You may want to rate the tab now too:
select rating
Wanna post a correction for this tab? Suggest correction