Oops, an error
Loading. Please wait.

The End Of Heartache tab

version 8
version 8

Whole song

23,813 views 9 this week
3 commentsread comments
1 2 3 4 5
x 4
add to favorites
×
Save as Personal and add changes to this tab that will be seen only by you. Learn more ›
×
You can save this tab as Personal to edit and correct it or add notes. All changes will be seen only by you. Learn more »
launch autoscroll
font size
0
reset
how to read this tab
guitar tuner
backing track
0:00
0:00
edit
Autoscroll
slow
fast
+/-
esc
set tempo
stop
h - hammer on
p - pull off
* - pinch harmonic and also palm mute. Palm mute will be under the tab, pinch harmonic 
be on the relevant string.
s - slide

Intro:
guitar 1:

0.00 - 0.15
D|--------------------------------------------------------|
A|-6p5--6p5--6p5--6p5--8p5-5----6p5--6p5--6p5--6p5--8-----|
F|----5----5----5----5----5--------5----5----5----5-------|
C|--------------------------------------------------------|
G|--------------------------------------------------------|
C|--------------------------------------------------------|

guitar 2:

D|--------------------------------------------------------|
A|--------------------------------------------------------|
F|--------------------------------------------------5-----|
C|-0------------------------------------------------5-----|
G|-0------------------------------------------------3-----|
C|-0------------------------------------------------------|

Verse 1:
guitar 1: (same as Intro)

guitar 2:

0.16 - 0.46
D|--------------------------------------------------------------------|
A|--------------------------------------------------------------------|
F|--------------------------------------------------------------------|
C|---------------------------3s2--------------------------------3s2---|
G|-0-0-0-0--0-0-0-0-0------------3s5-0-0-0-0--0-0-0-0-0-------------3-|
C|-0-0-0-0--0-0-0-0-0----------------0-0-0-0--0-0-0-0-0---------------|
   * * * *  * * * * *                * * * *  * * * * *
D|--------------------------------------------------------------------|
A|--------------------------------------------------------------------|
F|--------------------------------------------------------------------|
C|--------------------------3s2---------------------------------------|
G|-8-8-8-8--8-8-8-8-8------------3s5-8-8-8-8--8-8-8-8-8----8s10-10----|
C|-8-8-8-8--8-8-8-8-8----------------8-8-8-8--8-8-8-8-8----8s10-10----|


Bridge 1:
guitar 1&2:

0.47 - 1.01
D|------------------------------------------------------------------------|
A|------------------------------------------------------------------------|
F|------------------------------------------------------------------------|
C|------------------------------------------------------------------------|
G|-0-0-0-0--0-0-0-0-0-0-0--0-0-0-0-0-0-0--0-0-0---------------------------|
C|-0-0-0-0--0-0-0-0-0-0-0--0-0-0-0-0-0-0--0-0-0-7h10p7h10p7-6h9p6h9p6-----|
   * * * *  * * * * * * *  * * * * * * *  * * *
D|------------------------------------------------------------------------|
A|------------------------------------------------------------------------|
F|------------------------------------------------------------------------|
C|------------------------------------------------------------------------|
G|-0-0-0-0--0-0-0-0-0-0-0--0-0-0-0-0-0-0--0-0-0---------------------------|
C|-0-0-0-0--0-0-0-0-0-0-0--0-0-0-0-0-0-0--0-0-0--5h8p5h8p5-4h7p4h7p4------|
   * * * *  * * * * * * *  * * * * * * *  * * *

D|--------------|
A|--------------|
F|--------------|   2nd time
C|--------------|
G|-8s10-10-10---|
C|-8s10-10-10---|

Verse 2:
guitar 1:

1.02 - 1.31
D|--------------------------------------------------------------------|
A|--------------------------------------------------------------------|
F|--------------------------------------------------------------------|
C|---------------------------3s2--------------------------------3s2---|
G|-0-0-0-0--0-0-0-0-0------------3s5-0-0-0-0--0-0-0-0-0-------------3-|
C|-0-0-0-0--0-0-0-0-0----------------0-0-0-0--0-0-0-0-0---------------|
   * * * *  * * * * *                * * * *  * * * * *
D|--------------------------------------------------------------------|
A|--------------------------------------------------------------------|
F|--------------------------------------------------------------------|
C|---------------------------3s2--------------------------------------|
G|-8-8-8-8--8-8-8-8-8------------3s5-8-8-8-8--8-8-8-8-8----8s10-10----|
C|-8-8-8-8--8-8-8-8-8----------------8-8-8-8--8-8-8-8-8----8s10-10----|

D|---------------|
A|---------------|
F|---------------|   2nd time
C|---------------|
G|--8s10-10-10---|
C|--8s10-10-10---|


Both guitars
1.32 - 47
D|------------------------------------------------------------------------|
A|------------------------------------------------------------------------|
F|------------------------------------------------------------------------|
C|------------------------------------------------------------------------|
G|-0-0-0-0--0-0-0-0-0-0-0--0-0-0-0-0-0-0--0-0-0---------------------------|
C|-0-0-0-0--0-0-0-0-0-0-0--0-0-0-0-0-0-0--0-0-0-7h10p7h10p7-6h9p6h9p6-----|
   * * * *  * * * * * * *  * * * * * * *  * * *
D|------------------------------------------------------------------------|
A|------------------------------------------------------------------------|
F|------------------------------------------------------------------------|
C|------------------------------------------------------------------------|
G|-0-0-0-0--0-0-0-0-0-0-0--0-0-0-0-0-0-0--0-0-0---------------------------|
C|-0-0-0-0--0-0-0-0-0-0-0--0-0-0-0-0-0-0--0-0-0--5h8p5h8p5-4h7p4h7p4------|
   * * * *  * * * * * * *  * * * * * * *  * * *

D|---------------|
A|---------------|
F|---------------|   2nd time
C|---------------|
G|--8s10-10-10---|
C|--8s10-10-10---|

Chorus:
guitar 1&2:

1.48 - 2.18
D|-----------------------------|--------------------------|
A|-----------------------------|--------------------------|
F|-----------------------------|--------------------------|
C|---8--8---8--8--8---8--8--8--|--8--8--8---8--8--8--8--8-|
G|---8--8---8--8--8---8--8--8--|--8--8--8---8--8--8--8--8-|
C|---8--8---8--8--8---8--8--8--|--8--8--8---8--8--8--8--8-|

D|----------------------------|---------------------------|
A|----------------------------|---------------------------|
F|----------------------------|---------------------------|
C|--0--0---0--0--0---0--0--0--|--0--0--0---0--0--0--0--0--|
F|--0--0---0--0--0---0--0--0--|--0--0--0---0--0--0--0--0--|
C|--0--0---0--0--0---0--0--0--|--0--0--0---0--0--0--0--0--|

D|----------------------------|-------------------------------|----------------------------|
A|----------------------------|-------------------------------|----------------------------|
F|----------------------------|-------------------------------|----------------------------|
C|-10-10--10-10-10--10-10-10--|-10-10-10--10-10-10h12p10-10-7-|--8--8---8--8--8---8--8--8--|
G|-10-10--10-10-10--10-10-10--|-10-10-10--10-10-10h12p10-10-7-|--8--8---8--8--8---8--8--8--|
C|-10-10--10-10-10--10-10-10--|-10-10-10--10-10-10h12p10-10-7-|--8--8---8--8--8---8--8--8--|

D|----------------------------|
A|----------------------------|
F|----------------------------|
C|-10-10--10-10-10--10-10-10--|
G|-10-10--10-10-10--10-10-10--|
C|-10-10--10-10-10--10-10-10--|

Interlude:
guitar 1: (same as verse)

guitar 2:
2.19 - 2.24
D|-------------------------------------------------------------------|
A|-------------------------------------------------------------------|
F|-------------------------------------------------------------------|
C|-0-0-10-0-8-0-10-0-8-0-7-0-8-0-7-0-5-0-7-0-5-0-3-0-5-0-3-0-2-0-3s5-|
G|-------------------------------------------------------------------|
C|-------------------------------------------------------------------|

The first time its played it is muted a bit, second time it is unmuted half way through

D|-------------------------------------------------------------------|
A|-------------------------------------------------------------------|
F|---------------------------------------------------------------2*--|
C|-0-0-10-0-8-0-10-0-8-0-7-0-8-0-7-0-5-0-7-0-5-0-3-0-5-0-3-0-2-0-----|
G|-------------------------------------------------------------------|
C|-------------------------------------------------------------------|

2.35 - 2.50

D|--------------------------------------------------------------------|
A|--------------------------------------------------------------------|
F|--------------------------------------------------------------------|
C|---------------------------3s2--------------------------------3s2---|
G|-0-0-0-0--0-0-0-0-0------------3s5-0-0-0-0--0-0-0-0-0-------------3-|
C|-0-0-0-0--0-0-0-0-0----------------0-0-0-0--0-0-0-0-0---------------|
   * * * *  * * * * *                * * * *  * * * * *

D|--------------------------------------------------------------------|
A|--------------------------------------------------------------------|
F|--------------------------------------------------------------------|
C|---------------------------3s2--------------------------------------|
G|-8-8-8-8--8-8-8-8-8------------3s5-8-8-8-8--8-8-8-8-8----8s10-10----|
C|-8-8-8-8--8-8-8-8-8----------------8-8-8-8--8-8-8-8-8----8s10-10----|


Both guitars
2.51 - 3.05
D|------------------------------------------------------------------------|
A|------------------------------------------------------------------------|
F|------------------------------------------------------------------------|
C|------------------------------------------------------------------------|
G|-0-0-0-0--0-0-0-0-0-0-0--0-0-0-0-0-0-0--0-0-0---------------------------|
C|-0-0-0-0--0-0-0-0-0-0-0--0-0-0-0-0-0-0--0-0-0-7h10p7h10p7-6h9p6h9p6-----|
   * * * *  * * * * * * *  * * * * * * *  * * *
D|------------------------------------------------------------------------|
A|------------------------------------------------------------------------|
F|------------------------------------------------------------------------|
C|------------------------------------------------------------------------|
G|-0-0-0-0--0-0-0-0-0-0-0--0-0-0-0-0-0-0--0-0-0---------------------------|
C|-0-0-0-0--0-0-0-0-0-0-0--0-0-0-0-0-0-0--0-0-0-5h8p5h8p5-4h7p4h7p4-------|
   * * * *  * * * * * * *  * * * * * * *  * * *

D|---------------|
A|---------------|
F|---------------|   2nd time
C|---------------|
G|--8s10-10-10---|
C|--8s10-10-10---|

Both guitars
3.06 - 3.35

D|-----------------------------|--------------------------|
A|-----------------------------|--------------------------|
F|-----------------------------|--------------------------|
C|---8--8---8--8--8---8--8--8--|--8--8--8---8--8--8--8--8-|
G|---8--8---8--8--8---8--8--8--|--8--8--8---8--8--8--8--8-|
C|---8--8---8--8--8---8--8--8--|--8--8--8---8--8--8--8--8-|

D|----------------------------|---------------------------|
A|----------------------------|---------------------------|
F|----------------------------|---------------------------|
C|--0--0---0--0--0---0--0--0--|--0--0--0---0--0--0--0--0--|
F|--0--0---0--0--0---0--0--0--|--0--0--0---0--0--0--0--0--|
C|--0--0---0--0--0---0--0--0--|--0--0--0---0--0--0--0--0--|

D|----------------------------|-------------------------------|----------------------------|
A|----------------------------|-------------------------------|----------------------------|
F|----------------------------|-------------------------------|----------------------------|
C|-10-10--10-10-10--10-10-10--|-10-10-10--10-10-10h12p10-10-7-|--8--8---8--8--8---8--8--8--|
G|-10-10--10-10-10--10-10-10--|-10-10-10--10-10-10h12p10-10-7-|--8--8---8--8--8---8--8--8--|
C|-10-10--10-10-10--10-10-10--|-10-10-10--10-10-10h12p10-10-7-|--8--8---8--8--8---8--8--8--|

D|----------------------------|
A|----------------------------|
F|----------------------------|
C|-10-10--10-10-10--10-10-10--|
G|-10-10--10-10-10--10-10-10--|
C|-10-10--10-10-10--10-10-10--|

guitar 1&2:
3.36 - 4.08
D|------------------------------------------------------|
A|------------------------------------------------------|
F|------------------------------------------------------|
C|-s5---------------------------------------------------|
G|-s5-0-3-0-3--0-0-0-0--0-0-0-1--0-0-0-0-0-0-1----------|
C|-s5-0-3-0-3--0-0-0-0--0-0-0-1--0-0-0-0-0-0-1----------|
               * * * *  * * * *  * * * * * * *
D|------------------------------------------------------|
A|------------------------------------------------------|
F|------------------------------------------------------|
C|-s5---------------------------------------------------|
G|-s5-0-3-0-3------0-0-0-0--0-0-0-1--0-0--0-0-----------|
C|-s5-0-3-0-3------0-0-0-0--0-0-0-1--0-0--0-0-----------|
                   * * * *  * * * *  * *  * *

Clean:
guitar 1:

4.09 -
D|------------------------------------------------------------------|
A|---11--11--11--11--11--11--11--11--10--10--10--10--10--10--10--10-|
F|-10--10--10--10--10--10--10--10---7---7---7---7---7---7---7---7---|
C|------------------------------------------------------------------|
G|------------------------------------------------------------------|
C|------------------------------------------------------------------|

D|------------------------------------------------------------------|
A|--8---8---8---8---8---8---8---8----11--11--11--11--11--11--11--11-|
F|-5---5---5---5---5---5---5---5---10--10--10--10--10--10--10--10---|
C|------------------------------------------------------------------|
G|------------------------------------------------------------------|
C|------------------------------------------------------------------|

D|------------------------------------------------------------------|
A|------------------------------------------------------------------|
F|------------------------------------------------------------------|
C|------------------------------------------------------------------|
G|----------------\pick slide---------------------------------------|
C|----------------\pick slide---------------------------------------|


guitar 2: (chorus clean)


Both guitars - repeat x 2

4.24 - end
D|-----------------------------|--------------------------|
A|-----------------------------|--------------------------|
F|-----------------------------|--------------------------|
C|---8--8---8--8--8---8--8--8--|--8--8--8---8--8--8--8--8-|
G|---8--8---8--8--8---8--8--8--|--8--8--8---8--8--8--8--8-|
C|---8--8---8--8--8---8--8--8--|--8--8--8---8--8--8--8--8-|

D|----------------------------|---------------------------|
A|----------------------------|---------------------------|
F|----------------------------|---------------------------|
C|--0--0---0--0--0---0--0--0--|--0--0--0---0--0--0--0--0--|
F|--0--0---0--0--0---0--0--0--|--0--0--0---0--0--0--0--0--|
C|--0--0---0--0--0---0--0--0--|--0--0--0---0--0--0--0--0--|

D|----------------------------|-------------------------------|----------------------------|
A|----------------------------|-------------------------------|----------------------------|
F|----------------------------|-------------------------------|----------------------------|
C|-10-10--10-10-10--10-10-10--|-10-10-10--10-10-10h12p10-10-7-|--8--8---8--8--8---8--8--8--|
G|-10-10--10-10-10--10-10-10--|-10-10-10--10-10-10h12p10-10-7-|--8--8---8--8--8---8--8--8--|
C|-10-10--10-10-10--10-10-10--|-10-10-10--10-10-10h12p10-10-7-|--8--8---8--8--8---8--8--8--|

D|----------------------------|
A|----------------------------|
F|----------------------------|
C|-10-10--10-10-10--10-10-10--|
G|-10-10--10-10-10--10-10-10--|
C|-10-10--10-10-10--10-10-10--|


------------------------------|
------------------------------|
------------------------------|
------------------------------|
--0-0-0-0--0-0-0-0------------|
--0-0-0-0--0-0-0-0------------|

            
            
Suggest correction
Creating personal tab
Creating personal tab
You can edit any tab online and save it as your Personal.

You can edit, replace or remove any tab part or add personal notes – all changes will be seen only by you.

Personal tabs can be accessed anytime from any device, even offline.
Learn more »
comments
print report bad tab
3 comments total.
0 reply
Oryou 20 Apr 18, 2010 07:36 AM

change these

to these
D|-------------------------------------------------------------------|
A|-------------------------------------------------------------------|
F|---------------------7/10\7\-5/7---------------------10\7\-5-------|
C|---------------------x-x--x--x-x---------------------x-x---x-------|
G|0-0-0-0--0-0-0-0-0---9/8\9\--3/5--0-0-0-0--0-0-0-0-0-8\9\--3|
C|0-0-0-0--0-0-0-0-0------0-0-0-0--0-0-0-0-0---------------|
* * * * * * * * * * * * * * * * * *

0 reply
Oryou 20 Apr 18, 2010 07:38 AM

for god's sake, sorry for double posting , but change those lines:
D|--------------------------------------------------------------------|
A|--------------------------------------------------------------------|
F|--------------------------------------------------------------------|
C|---------------------------3s2--------------------------------3s2---|
G|-0-0-0-0--0-0-0-0-0------------3s5-0-0-0-0--0-0-0-0-0-------------3-|
C|-0-0-0-0--0-0-0-0-0----------------0-0-0-0--0-0-0-0-0---------------|
* * * * * * * * * * * * * * * * * *

to these:
D|-------------------------------------------------------------------|
A|-------------------------------------------------------------------|
F|---------------------7/10\7\-5/7---------------------10\7\-5-------|
C|---------------------x-x--x--x-x---------------------x-x---x-------|
G|0-0-0-0--0-0-0-0-0---9/8\9\--3/5--0-0-0-0--0-0-0-0-0-8\9\--3-------|
C|0-0-0-0--0-0-0-0-0----------------0-0-0-0--0-0-0-0-0---------------|
* * * * * * * * * * * * * * * * * *
the octaves apply to the 8-8-8-8-... part too , Enjoy !

0 reply
|Matt| 252 Apr 23, 2010 08:58 AM

Yeah I know thats how its played, but I had only been playing for like 6 months when I tabbed this, and that way was easier than the octave chords for me :D

guest
You may want to rate the tab now too:
select rating
Wanna post a correction for this tab? Suggest correction