Oops, an error
Loading. Please wait.
We have an official This Fire Burns tab made by UG professional guitarists. Check out the tab »
×
2,777 views 3 this week
1 commentread comment
1 2 3 4 5
x 3
add to favorites
×
Save as Personal and add changes to this tab that will be seen only by you. Learn more ›
×
You can save this tab as Personal to edit and correct it or add notes. All changes will be seen only by you. Learn more »
launch autoscroll
font size
0
reset
guitar tuner
edit
Autoscroll
slow
fast
+/-
esc
set tempo
stop
-------------------------------------------------------------------------------
		        This Fire - Killswitch Engage
-------------------------------------------------------------------------------

Tabbed By : Kergash
e-mail: h_bjerkg@live.no

Tuning: Drop C

Aight, so since Im not happy enough with the basstab which is on here already, seeing as
has many faults in it. I did this tab by myself, I based some of it on the guitar
KsE has done for it (http://www.youtube.com/watch?v=93rMz8VIYm8, as well as just hearing 
Im pretty sure this is quite perfect, might be some mistakes here and there.

Intro:(Only first time)
F|---------------------|--------------------------------------------------------|
C|---------------------|--------------------------------------------------------|
G|----------33-55------|-----------------3------------------------33-55---------|
C|2r----2r--------12\0-|-0h2222222h5p2----2222222-0h2222222h5p22--------3p2p0000|x2


Verse: Do the main bar twice, but change the endings as I have written.
F|-----------------------------------------------------|---------|-----------|
C|-----------------------------------------------------|1st time-|2nd time---|
G|------------------------3----------------------33-55-|---------|-----------|
C|0h2222222h5p222--0-2-0---222222-0h222222h5p22--------|3p2p0000-|0000-------|x2

Chorus:
F|---------------------------------------------------------------------------|
C|---------------------------------------------------------------------------|
G|-------------0233333333333/101010-999--------------------------------------|
C|2222222222222-------------------------00000000000-555-444-22222222222222---|

F|---------------------------------------------------------------------------|
C|---------------------------------------------------------------------------|
G|0233333333333/101010-999---------------------------------------------------|
C|-------------------------0000000000000000--12/0----------------------------|


Verse 2: Do the main bar twice, but change the endings as I have written.
F|-----------------------------------------------------|----------|----------|
C|-----------------------------------------------------|-1st time-|-2nd time-|
G|------------------------3----------------------33-55-|----------|----------|
C|0h2222222h5p222--0-2-0---222222-0h222222h5p22--------|-3p2p0000-|-0/15\0---|x2


Bridge: Do the main bar twice, but change the endings as I have written.
F|-------------------------------------------------|----------|--------------|
C|-------------------------------------------------|-1st time-|-2nd time-----|
G|--------------------3----------------------33-55-|----------|--------------|
C|0h2222222h5p2--------222222-0h222222h5p22--------|-3p2p0000-|-12\0---------|x2

Chorus:
F|---------------------------------------------------------------------------|
C|---------------------------------------------------------------------------|
G|-------------0233333333333/999-101010--------------------------------------|
C|2222222222222-------------------------00000000000-555-444-22222222222222---|

F|---------------------------------------------------------------------------|
C|---------------------------------------------------------------------------|
G|0233333333333/999-101010---------------------------------------------------|
C|-------------------------0000000000000000--00000000------------------------|


Breakdown:
F|---------------------------------------------------------------------------|
C|---------------------------------------------------------------------------|
G|------3---------3---------3-------------3---------3---------3--------------|
C|32-32--2--32-32--2--31-21--1------32-32--2--32-32--2--31-21--1-------------|

F|---------------------------------------------------------------------------|
C|---------------------------------------------------------------------------|
G|------3--------3--------3-----2-3-1--------3--------3--------3-----2-3-----|
C|322232-2-322232-2-311121-1-310-0-0---322232-2-322232-2-311121-1-310-0------|

Chorus:
F|---------------------------------------------------------------------------|
C|---------------------------------------------------------------------------|
G|-------------0233333333333/999-101010--------------------------------------|
C|2222222222222-------------------------00000000000-555-444-22222222222222---|

F|---------------------------------------------------------------------------|
C|---------------------------------------------------------------------------|
G|0233333333333/999-101010---------------------------------------------------|
C|-------------------------0000000000000000--12/0----------------------------|

Ending:
F|---------------------------------------------------------------------------|
C|---------------------------------------------------------------------------|
G|-------3r------------------------------------------------------------------|
C|2r-------------0r------5-4-2r----------------------------------------------|


| r  let ring
| /  slide up
| \  slide down
| h  hammer-on
| p  pull-off
| ~  vibrato
| +  harmonic
| x  Mute note
===============================================================================

            
            
Suggest correction
Creating personal tab
Creating personal tab
You can edit any tab online and save it as your Personal.

You can edit, replace or remove any tab part or add personal notes – all changes will be seen only by you.

Personal tabs can be accessed anytime from any device, even offline.
Learn more »
Give kudos to tab author, rate the tab!
1 2 3 4 5
comments
print report bad tab
1 comment total.
0 reply
KennyM79 2,238 Jun 11, 2015 07:24 AM

This could be a good tab, but the formatting makes it very ambiguous. Am I looking at alternating 1s and 0s or am I looking at a series of 10s? Am I looking at a series of 2s or a series of 22s?

guest
You may want to rate the tab now too:
select rating
Wanna post a correction for this tab? Suggest correction