Oops, an error
Loading. Please wait.
We have an official This Is Absolution tab made by UG professional guitarists. Check out the tab »
×

This Is Absolution tab

version 3
version 3

Whole song

35,469 views 18 this week
6 commentsread comments
1 2 3 4 5
x 13
add to favorites
×
Save as Personal and add changes to this tab that will be seen only by you. Learn more ›
×
You can save this tab as Personal to edit and correct it or add notes. All changes will be seen only by you. Learn more »
launch autoscroll
font size
0
reset
how to read this tab
guitar tuner
backing track
0:00
0:00
edit
Autoscroll
slow
fast
+/-
esc
set tempo
stop
About this tab version
This version contains both Adam and Joel's guitar parts, Lead and Rhythm. Here is a YouTube link to them actually giving the lesson if you haven't already seen it: https://www.youtube.com/watch?v=dc6PQpGFUOk. Was this info helpful? Yes No
Tabbed By: DMB_1991

Tuning: CGCFAD
Intro/Verse One: Both Guitars
D|------------|---------------------|----------------------|----------------|
A|------------|---------------------|----------------------|----------------|
F|------------|---------------------|----------------------|----------------|
C|-5-----7----|---------------------|----------------------|----------------|
G|-3--5--5--7-|---------------------|----------------5p3---|----------------|
C|----5-----7-|-0h22222-5p222222222-|-22222222-5h7p00---00-|-0h222225p22222-|
                p ppppp p ppppppppp   pppppppp p p ppp ppp   ppppppp ppppp

Adam                         Joel
D|----------------------|    D|----------------------|
A|----------------------|    A|----------------------|
F|----------------------| x2 F|----------------------| x2
C|-9900557755445544-----|    C|-12120099101099779977-|
G|----------------------|    G|----------------------|
C|----------------------|    C|----------------------|
   pppppppppppppppp             p p ppppp p pppppppp

Both Guitars 
D|---------------|-----------------|----------------|---------------|
A|---------------|-----------------|----------------|---------------|
F|---------------|-----------------|----------------|---------------|
C|-4---5---------|-----------------|--4---5---------|---------------|  x2
G|-5---7-----2---|---2-------------|--5---7-----2---|---2-----------|
C|--000--0-2-2-2-|-2-2-2-2-5-2-4-5-|---000--0-2-2-2-|-2-2-2-2h5p4-0-|
    ppp  p p   p   p   p p   p         ppp  p p   p   p   p p 

D|--------------|---------------|----------------|---------------|--------------|
A|--------------|---------------|----------------|---------------|--------------|
F|--------------|---------------|----------------|---------------|--------------|
C|-5-----5------|---------------|----------------|---------------|--------------|
G|-3--5--7------|-5-----7-7-2-2-|-2-2--2---------|-5-----7-7-2-2-|-2-2--2-------|
C|----5-----12\-|-7-0-0-9-9-2-2-|-2-2--2-5-2-4-5-|-7-0-0-9-9-2-2-|-2-2--2-5p4-0-|
                    p p     p p   p p p    p         p p     p p   p p  p
                        
                                                   *Adam          Joel
D|---------------|----------------|---------------|--------------|-----------------|
A|---------------|----------------|---------------|--------------|-----------------|
F|---------------|----------------|---------------|--------------|-----------------|
C|---------------|----------------|---------------|-9---5-7-5----|-12--9-10-9------|
G|-5-----7-7-2-2-|-2-2------------|-5-----7-7-2-2-|---7------9-7-|---10------12-10-|
C|-7-0-0-9-9-2-2-|-2-2--2-5-2-4-5-|-7-0-0-9-9-2-2-|--------------|-----------------|
     p p     p p   p p  p   p         p p     p p     p              p

*Note above, Adam only plays this harmony on the second verse, not the first.

Pre-Chorus: Adam
D|-----------|-----------|------------------|----------------|
A|-----------|-----------|------------------|----------------|
F|-4/555-555-|-5//77-777-|-7//999-11-11//12-|-12-12-12-12-12-|
C|-x/xxx-xxx-|-x//xx-xxx-|-x//xxx-x--x//-x--|-x--x--x--x--x--|    
G|-2/333-333-|-3//55-555-|-5//777-9--9//-10-|-10-10-10-10-10-|
C|-----------|-----------|------------------|----------------|

D|-----------|-----------|-------------------|
A|-----------|-----------|-------------------|
F|-4/555-555-|-5//77-777-|-11//12-12-12-11-9-|
C|-x/xxx-xxx-|-x//xx-xxx-|-x//-x--x--x--x--x-|    
G|-2/333-333-|-3//55-555-|-9//-10-10-10-9--7-|
C|-----------|-----------|-------------------|

Joel
D|-----------------|--------------|------3--2-----3-|
A|-----------------|--------------|------3--3-----3-|
F|-------12-----12-|-----12----12-|------0--2-----0-|
C|-------12-----12-|-----12----12-|---------0-----x-| x2   
G|-------x------x--|-----x-----x--|-----------2h3-3-|
C|-/10-10---10-10--|-0-0---9-9----|--0-2------------|

3/4 time here
Chorus: Adam
D|---|---|---|---|---|---|-----|-----|---|---|---||---|
A|---|---|---|---|---|---|-----|-----|---|---|---||-3-| Alternate end chord.
F|-5-|---|---|-5-|---|---|-5-5-|-5---|---|-5-|---||-0-| A bit different sound.
C|-5-|-0-|-2-|-5-|-0-|-2-|-5-5-|-5-0-|-2-|-5-|-0-||-4-|
G|-3-|-0-|-2-|-3-|-0-|-2-|-3-3-|-3-0-|-2-|-3-|-0-||-0-|
C|---|-0-|-2-|---|-0-|-2-|-----|---0-|-2-|---|-0-||-0-|
   p   p   p   p   p   p           p   p   p       

Joel (Clean)
D|-------0---|------0---|-----0-----|  |-------2---|-0--------|------0---|------0-----|
A|--------3--|-------3--|------3----|  |--------3--|--3-------|-------3--|-------3----|
F|-----0---0-|----0---0-|---0---0---|x2|-----0---0-|---0----0-|---0----0-|----0---0---|
C|---4-------|--4-------|--4--------|  |---4-------|-------4--|--4-------|--4---------|
G|-3---------|----------|-----------|  |-3---------|----------|----------|-3--------0-|
C|-----------|-0--------|-2---------|  |-----------|------0---|-2--------|----------0-|


Verse 2
Pre-Chorus
Chorus

Bridge One: Adam
D|-----------------|-----------------|-----------------|-----------------|-----------------|-----------------|
A|-----------------|-----------------|-----------------|-----------------|-----------------|-----------------|
F|-----------------|-----------------|-----------------|-----------------|-----------------|-----------------|
C|-----------------|-----------------|-----------------|-----------------|-----------------|-----------------|
G|-2---------------|-----------------|-0---------------|-----------------|-3---------------|-----------------|
C|-2-2-2-2-2-2-2-2-|-2h5-0-4-0h5-0-4-|-0-0-0-0-0-0-0-0-|-0h5-0-4-0h5-0-4-|-5-5-5-5-5-5-5-5-|-5h5-0-4-0h5-0-4-|
   p p p p p p p p   p   p   p   p     p p p p p p p p   p   p   p   p     p p p p p p p p   p   p   p   p 

D|-----------------|-----------------|  |------------------|
A|-----------------|-----------------|  |------------------| Play this the second time around,
F|-----------------|-----------------|  |------------------| instead of that last bar. 
C|-----------------|-----------------|x2|------------------|
G|-0---------------|-----------------|  |--0-0-0-0-0-0-0-0-|
C|-0-0-0-0-0-0-0-0-|-0h5-0-4-0h5-0-4-|  |--0-0-0-0-0-0-0-0-|
   p p p p p p p p   p   p   p   p   

Joel
D|---|---|---|---|
A|---|---|---|---|
F|---|---|---|---|
C|-2-|-0-|-5-|-0-|
G|-2-|-0-|-3-|-0-| x2
C|-2-|-0-|---|-0-|

Bridge Two: Adam continues to play part one.
Joel
D|---------------------|-----------------|  |-----------------|----------------|
A|---------------------|-----------------|  |-----------------|----------------|
F|---------------------|-----------------|x3|-----------------|----------------|
C|-12---12---12---12---|-7---7---9---9---|  |-4---4---4---4---|-7---7---5---5p4|
G|----7----7----7----7-|---7---7---7---7-|  |---5---5---5---5-|---5---5---5----|
C|---------------------|-----------------|  |-----------------|----------------|
      p    p    p    p     p   p   p   p        p   p   p   p     p   p   p           

D|---------------------|-----------------|  |-----------------|----------------|
A|---------------------|-----------------|  |-----------------|----------------|
F|---------------------|-----------------|x3|-----------------|-7-7-7-7-7-7-7-7|
C|-12---12---12---12---|-7---7---9---9---|  |-----------------|-x-x-x-x-x-x-x-x|
G|----7----7----7----7-|---7---7---7---7-|  |-0-0-0-0-0-0-0-0-|-5-5-5-5-5-5-5-5|
C|---------------------|-----------------|  |-0-0-0-0-0-0-0-0-|----------------|
      p    p    p    p     p   p   p   p

Pre-Chorus
Chorus

Outro: Adam
D|-----|-----|-----|-----|  |---|
A|-----|-----|-----|-----|  |---|        Optional.
F|--5--|-----|--5--|-----|  |---| Makes it sound complete.
C|--5--|--0--|--5--|--0--|  |-2-|
G|--3--|--0--|--3--|--0--|  |-2-|
C|-----|--0--|-----|--0--|  |-2-|

Joel
D|-----0---|-----|-----0---|-----|
A|------3--|-----|------3--|-----|
F|---0---0-|--0--|---0---0-|--0--|
C|--4------|--4--|--4------|--4--|
G|-3-------|--5--|-3-------|--5--|
C|---------|-----|---------|-----|

Legend:

P = palm mute

            
            
Suggest correction
Creating personal tab
Creating personal tab
You can edit any tab online and save it as your Personal.

You can edit, replace or remove any tab part or add personal notes – all changes will be seen only by you.

Personal tabs can be accessed anytime from any device, even offline.
Learn more »
comments
print report bad tab
6 comments total. Showing first comments.
0 reply
lost shadows 01 10 Aug 11, 2009 12:34 PM

This is really GOOD thanks man !!!

0 reply
Casper739 37 Aug 11, 2009 01:20 PM

you got this from the lesson that they have on youtube right? good job!!

0 reply
Zoowaka 10 Oct 20, 2009 11:01 AM

5 stars for this dude! Nearly perfect I think :D

guest
You may want to rate the tab now too:
select rating
Wanna post a correction for this tab? Suggest correction