Oops, an error
Loading. Please wait.

This Is Goodbye guitar pro

8,904 views 1 this week
11 commentsread comments
1 2 3 4 5
x 10
add to favorites
guitar tuner
Autoscroll
slow
fast
+/-
esc
set tempo
stop
"This Is Goodbye"
demo version
Play now

or get full version for Free

×
Get full version now!
Learn and play this song
in Tab Pro
Try for free

or get $10 off Welcome Bonus

Get welcome bonus
Get access to Tab Pro version of “This Is Goodbye”!
Tab Pro is a premium guitar tab service, available on PC, Mac, iOS and Android
TRY FOR FREE
To download “This Is Goodbye” Guitar Pro tab click button below
Please note that you must have Guitar Pro software installed on your
computer in order to view this file.
Suggest correction
comments
report bad tab
11 comments total. Showing first comments.
-1 reply
gssecretary1 10 Jul 23, 2009 10:15 AM

Beautiful work. Not sure if GP did it justice, but when I'm back from work I'll give it a go.

+1 reply
kse8808 79 Jul 23, 2009 11:56 AM

the main riff is wrong.

It's...

|-------------------------------------|
|-------------------------------------|
|-------------------------------------|
|----------------------------------7--|
|-----------------1p0--------------5--|
|-1p0-1h5p1p0-1p0-----5p0-1hp5p1p0----|

other correction...
|---------------------------------------------------------------------
|---------------------------------------------------------------------
|---------------------------------------------------------------------
|---------10p0---------10p0-----10p0----------7p0---------7p0-----7p0-
|-8p0-8p0------8p0-8p0------8p0-------5p0-5p0-----5p0-5p0-----5p0-----
|---------------------------------------------------------------------

------------------------------------------------------------------|
------------------------------------------------------------------|
------------------------------------------------------------------|
---------3p0---------3p0-----3p0----------------------------------|
-1p0-1p0-----1p0-1p0-----1p0----------------------1p0-------------|
----------------------------------1p0-1h5p1p0-1p0-----5p0-1h5p1p0-|

0 reply
kse8808 79 Jul 23, 2009 05:01 PM

I posted a video on youtube of me playing it. check it out and see.

guest
You may want to rate the tab now too:
select rating