Oops, an error
Loading. Please wait.

Until The Day tab

868 views 12 this week
2 commentsread comments
1 2 3 4 5
x 3
add to favorites
×
Save as Personal and add changes to this tab that will be seen only by you. Learn more ›
×
You can save this tab as Personal to edit and correct it or add notes. All changes will be seen only by you. Learn more »
launch autoscroll
font size
0
reset
how to read this tab
guitar tuner
edit
Autoscroll
slow
fast
+/-
esc
set tempo
stop
Killswitch Engage - Until The Day
Tuning - CGCFAD
tabbed by jjhand
Please rate or comment if you liked this tab 


[Intro]

   6/8 time feel
D|-5----5----5----5----5--------|-5----5----5----5----5----------|
A|-5----5----5----5----5--------|-5----5----5----5----5----------|
F|-5----x----x----x----x--------|-2----2----2----x----x----------|
C|------5----3----2----3--------|-2----2----2----2----3----------|
G|------------------------------|-0----3----5--------------------|
C|------------------------------|--------------------------------|

D|-5----5----5----5----5--------|----------------------------------------------|
A|-5----5----5----5----5--------|----------------------------------------------|
F|-2----x----x----x----x--------|----------------------------------------------|
C|------5----3----2----3--------|----------------------------------------------|
G|------------------------------|-3--3--3--3--3--3--3--3--5--5--5--5--5--/12\--|
C|------------------------------|-3--3--3--3--3--3--3--3--5--5--5--5--5--/12\--|
                                  PM***********************************



[Verse]
   use palm muting on single tremelo picked notes
 
D|----------------------------------------------------|
A|----------------------------------------------------|
F|-4----------2----------4----------2----------4--5---|
C|-2--2-2-2-2-2--2-2-2-2-2--2-2-2-2-2--2-2-2-2-2--2---|
G|----------------------------------------------------|
C|----------------------------------------------------|

D|----------------------------------------------------|
A|----------------------------------------------------|
F|-4----------2----------4----------2----------4--5---|
C|-3--3-3-3-3-3--3-3-3-3-3--3-3-3-3-3--3-3-3-3-3--3---|
G|----------------------------------------------------|
C|----------------------------------------------------|

D|----------------------------------------------------|
A|----------------------------------------------------|
F|-4----------2----------4----------2----------4--5---|
C|-4--4-4-4-4-4--4-4-4-4-4--4-4-4-4-4--4-4-4-4-4--4---|
G|----------------------------------------------------|
C|----------------------------------------------------|

D|------------------------------------------------------|
A|------------------------------------------------------|
F|-7----------7----------5----------4--4h5p4---4h5p4----|
C|-5--5-5-5-5-5--5-5-5-5-5--5-5-5-5-5--------5-------5--|
G|------------------------------------------------------|
C|------------------------------------------------------|

D|----------------------------------------------------|
A|----------------------------------------------------|
F|-4----------2----------4----------2----------4--5---|
C|-2--2-2-2-2-2--2-2-2-2-2--2-2-2-2-2--2-2-2-2-2--2---|
G|----------------------------------------------------|
C|----------------------------------------------------|

D|----------------------------------------------------|
A|----------------------------------------------------|
F|-4----------2----------4----------2----------4--5---|
C|-3--3-3-3-3-3--3-3-3-3-3--3-3-3-3-3--3-3-3-3-3--3---|
G|----------------------------------------------------|
C|----------------------------------------------------|

D|----------------------------------------------------|
A|----------------------------------------------------|
F|-4----------2----------4----------2----------4--5---|
C|-4--4-4-4-4-4--4-4-4-4-4--4-4-4-4-4--4-4-4-4-4--4---|
G|----------------------------------------------------|
C|----------------------------------------------------|

D|----------------------------------------------------|
A|----------------------------------------------------|
F|-7----------7----------5----------4-----------------|
C|-5--5-5-5-5-5--5-5-5-5-5--5-5-5-5-5-----------------|
G|---------------------------------------/12\---------|
C|---------------------------------------/12\---------|



[Chorus]

** This entire part is played 2x. 

   Guitar 1
D|--------------------------------------|-------------------------------------|
A|--------------------------------------|------------------8--10p8------------|
F|-----------------9---10p9--7----------|--------------------------10-9p7-----|
C|-7~------7--9-10-------------10-9-----|-7~------7--9-10------------------9--|
G|------10--------------------------10--|------10-----------------------------|
C|--------------------------------------|-------------------------------------|
 |         PM*****             *******            *******             ******
 | Guitar 2
D|--------------------------------------|--------------------------------------|
A|--------------------------------------|--------------------------------------|
F|--------------------------------------|--------------------------------------|
C|-2-------2--2--2--5----------5--5-----|--------------------------------------|
G|-0-------0--0--0--3----------3--3--2--|-3-------3--3--3--5----------5--5--5--|
C|-----------------------------------2--|-3-------3--3--3--5----------5--5--5--|

   Guitar 1
D|--------------------------------------|-------------------------------------------|
A|--------------------------------------|-------------------------------------------|
F|-----------------9---10p9--7----------|-------------------------------------------|
C|-7~------7--9-10-------------10-9-----|-7~----10----9p7------10----9-----7--------|
G|------10--------------------------10--|-0--0--0--0--0-----0--0--0--0--0--0--0--10-|
C|--------------------------------------|-------------------------------------------|
 |         PM*****             *******       PM    PM      PM    PM    PM    PM 
 | Guitar 2
D|--------------------------------------|-------------------------------------------|
A|--------------------------------------|-------------------------------------------|
F|--------------------------------------|-2-----------------------------------------|
C|--------------------------------------|-2-----------------------------------------|
G|-3-------3--3--3--5----------5--5--5--|-0-----------------------------------------|
C|-3-------3--3--3--5----------5--5--5--|-------------------------------------------|



[Verse 2]
   Same as first verse, use palm muting on single tremelo picked notes
 
D|----------------------------------------------------|
A|----------------------------------------------------|
F|-4----------2----------4----------2----------4--5---|
C|-2--2-2-2-2-2--2-2-2-2-2--2-2-2-2-2--2-2-2-2-2--2---|
G|----------------------------------------------------|
C|----------------------------------------------------|

D|----------------------------------------------------|
A|----------------------------------------------------|
F|-4----------2----------4----------2----------4--5---|
C|-3--3-3-3-3-3--3-3-3-3-3--3-3-3-3-3--3-3-3-3-3--3---|
G|----------------------------------------------------|
C|----------------------------------------------------|

D|----------------------------------------------------|
A|----------------------------------------------------|
F|-4----------2----------4----------2----------4--5---|
C|-4--4-4-4-4-4--4-4-4-4-4--4-4-4-4-4--4-4-4-4-4--4---|
G|----------------------------------------------------|
C|----------------------------------------------------|

D|------------------------------------------------------|
A|------------------------------------------------------|
F|-7----------7----------5----------4--4h5p4---4h5p4----|
C|-5--5-5-5-5-5--5-5-5-5-5--5-5-5-5-5--------5-------5--|
G|------------------------------------------------------|
C|------------------------------------------------------|

D|----------------------------------------------------|
A|----------------------------------------------------|
F|-4----------2----------4----------2----------4--5---|
C|-2--2-2-2-2-2--2-2-2-2-2--2-2-2-2-2--2-2-2-2-2--2---|
G|----------------------------------------------------|
C|----------------------------------------------------|

D|----------------------------------------------------|
A|----------------------------------------------------|
F|-4----------2----------4----------2----------4--5---|
C|-3--3-3-3-3-3--3-3-3-3-3--3-3-3-3-3--3-3-3-3-3--3---|
G|----------------------------------------------------|
C|----------------------------------------------------|

D|----------------------------------------------------|
A|----------------------------------------------------|
F|-4----------2----------4----------2----------4--5---|
C|-4--4-4-4-4-4--4-4-4-4-4--4-4-4-4-4--4-4-4-4-4--4---|
G|----------------------------------------------------|
C|----------------------------------------------------|

D|----------------------------------------------------|
A|----------------------------------------------------|
F|-7----------7----------5----------4-----------------|
C|-5--5-5-5-5-5--5-5-5-5-5--5-5-5-5-5-----------------|
G|---------------------------------------/12\---------|
C|---------------------------------------/12\---------|



[Chorus 2]

** This entire part is played 2x. 

   Guitar 1
D|--------------------------------------|-------------------------------------|
A|--------------------------------------|------------------8--10p8------------|
F|-----------------9---10p9--7----------|--------------------------10-9p7-----|
C|-7~------7--9-10-------------10-9-----|-7~------7--9-10------------------9--|
G|------10--------------------------10--|------10-----------------------------|
C|--------------------------------------|-------------------------------------|
 |         PM*****             *******            *******             ******
 | Guitar 2
D|--------------------------------------|--------------------------------------|
A|--------------------------------------|--------------------------------------|
F|--------------------------------------|--------------------------------------|
C|-2-------2--2--2--5----------5--5-----|--------------------------------------|
G|-0-------0--0--0--3----------3--3--2--|-3-------3--3--3--5----------5--5--5--|
C|-----------------------------------2--|-3-------3--3--3--5----------5--5--5--|

   Guitar 1
D|--------------------------------------|-------------------------------------------|
A|--------------------------------------|-------------------------------------------|
F|-----------------9---10p9--7----------|-------------------------------------------|
C|-7~------7--9-10-------------10-9-----|-7~----10----9p7------10----9-----7--------|
G|------10--------------------------10--|-0--0--0--0--0-----0--0--0--0--0--0--0--10-|
C|--------------------------------------|-------------------------------------------|
 |         PM*****             *******       PM    PM      PM    PM    PM    PM 
 | Guitar 2
D|--------------------------------------|-------------------------------------------|
A|--------------------------------------|-------------------------------------------|
F|--------------------------------------|-2-----------------------------------------|
C|--------------------------------------|-2-----------------------------------------|
G|-3-------3--3--3--5----------5--5--5--|-0-----------------------------------------|
C|-3-------3--3--3--5----------5--5--5--|-------------------------------------------|



[Bridge]

D|------------------------------------------------|
A|-------8--------8-------------------------------|
F|-------------------------9--------9--------9----|
C|------------------------------------------------|
G|-8--8-----8--8-----8--8-----8--8-----8--8-------|
C|------------------------------------------------|

D|------------------------------------------------|
A|------------------------------------------------|
F|-------7--------7--------5--------5--------5----|
C|------------------------------------------------|
G|-0--0-----0--0-----0--0-----0--0-----0--0-------|
C|------------------------------------------------|

D|------------------------------------------------|
A|------------------------------------------------|
F|-------5--------5--------4--------4--------4----|
C|------------------------------------------------|
G|------------------------------------------------|
C|-3--3-----3--3-----3--3-----3--3-----3--3-------|

D|------------------------------------------------|
A|------------------------------------------------|
F|-------4--------4--------2--------2--------2----|
C|------------------------------------------------|
G|-0--0-----0--0-----0--0-----0--0-----0--0-------|
C|------------------------------------------------|


bridge repeats, but a second part harmonizes on it:

D|-------8--------8-------------------------------|
A|-------------------------8--------8--------8----|
F|-10-10----10-10----10-10----10-10----10-10------|
C|------------------------------------------------|
G|------------------------------------------------|
C|------------------------------------------------|

D|------------------------------------------------|
A|-------8--------8-------------------------------|
F|-------------------------9--------9--------9----|
C|-10-10----10-10----10-10----10-10----10-10------|
G|------------------------------------------------|
C|------------------------------------------------|

D|------------------------------------------------|
A|------------------------------------------------|
F|-------9--------9--------7--------7--------7----|
C|------------------------------------------------|
G|-10-10----10-10----10-10----10-10----10-10------|
C|------------------------------------------------|

D|------------------------------------------------|
A|------------------------------------------------|
F|-------7--------7-------------------------------|
C|-7--7-----7--7-----7----x\----------------------|
G|------------------------x\---pick scrape--------|
C|------------------------x\----------------------|



[Bridge]
   Repeated notes are not shown but indicated above

   Guitar 1                                         % pick these notes 16x 
D|------------------------------------------------|------------------------------|
A|-------8--------8-------------------------------|------------------------------|
F|-------------------------9--------9--------9----|------------------------------|
C|------------------------------------------------|-7----------------------------|
G|-8--8-----8--8-----8--8-----8--8-----8--8-------|-0----------------------------|
C|------------------------------------------------|------------------------------|
 |                                                  PM
 | Guitar 2
D|-------8--------8-------------------------------|------------------------------|
A|-------------------------8--------8--------8----|------------------------------|
F|-10-10----10-10----10-10----10-10----10-10------|------------------------------|
C|------------------------------------------------|-7----------------------------|
G|------------------------------------------------|-0----------------------------|
C|------------------------------------------------|------------------------------|


   Guitar 1                                         % pick these notes 8x 
D|------------------------------------------------|------------------------------|
A|------------------------------------------------|------------------------------|
F|-------5--------5--------4--------4--------4----|-2----------------------------|
C|------------------------------------------------|-2------------x\--------------|
G|------------------------------------------------|-0------------x\--------------|
C|-3--3-----3--3-----3--3-----3--3-----3--3-------|--------------x\--------------|
 |
 | Guitar 2
D|------------------------------------------------|------------------------------|
A|------------------------------------------------|------------------------------|
F|-------9--------9--------7--------7--------7----|------------------------------|
C|------------------------------------------------|-7------------x\--------------|
G|-10-10----10-10----10-10----10-10----10-10------|-0------------x\--------------|
C|------------------------------------------------|--------------x\--------------|

   Guitar 1                                         % pick these notes 16x 
D|------------------------------------------------|------------------------------|
A|-------8--------8-------------------------------|------------------------------|
F|-------------------------9--------9--------9----|------------------------------|
C|------------------------------------------------|-7----------------------------|
G|-8--8-----8--8-----8--8-----8--8-----8--8-------|-0----------------------------|
C|------------------------------------------------|------------------------------|
 |                                                  PM
 | Guitar 2
D|-------8--------8-------------------------------|------------------------------|
A|-------------------------8--------8--------8----|------------------------------|
F|-10-10----10-10----10-10----10-10----10-10------|------------------------------|
C|------------------------------------------------|-7----------------------------|
G|------------------------------------------------|-0----------------------------|
C|------------------------------------------------|------------------------------|


   Guitar 1                                         %            %  pick these notes 8x 
D|------------------------------------------------|------------------------------|
A|------------------------------------------------|------------------------------|
F|-------5--------5--------4--------4--------4----|-2----------------------------|
C|------------------------------------------------|-2----------------------------|
G|------------------------------------------------|-0------------2---------------|
C|-3--3-----3--3-----3--3-----3--3-----3--3-------|--------------2---------------|
 |
 | Guitar 2
D|------------------------------------------------|------------------------------|
A|------------------------------------------------|------------------------------|
F|-------9--------9--------7--------7--------7----|------------------------------|
C|------------------------------------------------|-7----------------------------|
G|-10-10----10-10----10-10----10-10----10-10------|-0------------2---------------|
C|------------------------------------------------|--------------2---------------|



[Clean Guitar Bridge]

   let strings ring
D|-------5-----------------8---------------0--5-----------------7------------|
A|----5--5-----------------8------------6-----5-----------8-----8------------|
F|----5--------------9---------------5-----------------------7---------------|
C|-7-------------10-10-10------------3-----------------5---------------------|
G|-7-------------10----------------------------------------------------------|
C|---------------------------------------------------------------------------|

D|----------5-----------------7--------|--------------------------------------|
A|----6-----5-----------8-----5--------|--------------------------------------|
F|-------5-----------------7-----------|-2--2--2--2--2--2--2--2---------------|
C|-3-----------------5-----------------|-2--2--2--2--2--2--2--2-----x\--------|
G|-------------------------------------|-0--0--0--0--0--0--0--0-----x\--------|
C|-------------------------------------|----------------------------x\--------|



[Final Chorus]

** This entire part is played 2x, just like before. 

   Guitar 1
D|--------------------------------------|-------------------------------------|
A|--------------------------------------|------------------8--10p8------------|
F|-----------------9---10p9--7----------|--------------------------10-9p7-----|
C|-7~------7--9-10-------------10-9-----|-7~------7--9-10------------------9--|
G|------10--------------------------10--|------10-----------------------------|
C|--------------------------------------|-------------------------------------|
 |         PM*****             *******            *******             ******
 | Guitar 2
D|--------------------------------------|--------------------------------------|
A|--------------------------------------|--------------------------------------|
F|--------------------------------------|--------------------------------------|
C|-2-------2--2--2--5----------5--5-----|--------------------------------------|
G|-0-------0--0--0--3----------3--3--2--|-3-------3--3--3--5----------5--5--5--|
C|-----------------------------------2--|-3-------3--3--3--5----------5--5--5--|

   Guitar 1
D|--------------------------------------|-------------------------------------------|
A|--------------------------------------|-------------------------------------------|
F|-----------------9---10p9--7----------|-------------------------------------------|
C|-7~------7--9-10-------------10-9-----|-7~----10----9p7------10----9-----7--------|
G|------10--------------------------10--|-0--0--0--0--0-----0--0--0--0--0--0--0--10-|
C|--------------------------------------|-------------------------------------------|
 |         PM*****             *******       PM    PM      PM    PM    PM    PM 
 | Guitar 2
D|--------------------------------------|-------------------------------------------|
A|--------------------------------------|-------------------------------------------|
F|--------------------------------------|-2-----------------------------------------|
C|--------------------------------------|-2-----------------------------------------|
G|-3-------3--3--3--5----------5--5--5--|-0-----------------------------------------|
C|-3-------3--3--3--5----------5--5--5--|-------------------------------------------|



[Ending]

   Guitar 1
D|-------------------------------------------|--------------------------------------|
A|-------------------------------------------|--------------------------------------|
F|-------------------------------------------|--------------------------------------|
C|-7~----10----9p7------10----9-----7--------|-7------------------------------------|
G|-0--0--0--0--0-----0--0--0--0--0--0--0--10-|-0------------------------------------|
C|-------------------------------------------|--------------------------------------|
 |    PM    PM      PM    PM    PM    PM 
 | Guitar 2
D|-------------------------------------------|--------------------------------------|
A|-------------------------------------------|--------------------------------------|
F|-2-----------------------------------------|-2------------------------------------|
C|-2-----------------------------------------|-2------------------------------------|
G|-0-----------------------------------------|-0------------------------------------|
C|-------------------------------------------|--------------------------------------|



************************************
Key:

| x   Dead note
| h   Hammer-on
| p   Pull-off
| /   Slide up
| \   Slide down
| ~   Vibrato
| PM  Palm mute

************************************

            
            
Suggest correction
Creating personal tab
Creating personal tab
You can edit any tab online and save it as your Personal.

You can edit, replace or remove any tab part or add personal notes – all changes will be seen only by you.

Personal tabs can be accessed anytime from any device, even offline.
Learn more »
Give kudos to tab author, rate the tab!
1 2 3 4 5
comments
print report bad tab
2 comments total.
0 reply
jjhand 19,283 Feb 28, 2017 11:00 PM, edited on March 1 2017, 04:04 am

I forgot to add the higher harmonized part during the Chorus but they did not play that part in the live footage. It is very similar to what is shown but all notes are about 1.5 to 2 steps higher in G minor key.

0 reply
steven69 10 Mar 02, 2017 10:51 PM

Thank you 5 stars perfect

guest
You may want to rate the tab now too:
select rating
Wanna post a correction for this tab? Suggest correction