Oops, an error
Loading. Please wait.

Put A Sock In It tab

version 2
version 2

Whole song

Interactive

653 views 1 this week
5 commentsread comments
1 2 3 4 5
1 last vote to show rating
add to favorites
×
Save as Personal and add changes to this tab that will be seen only by you. Learn more ›
×
You can save this tab as Personal to edit and correct it or add notes. All changes will be seen only by you. Learn more »
launch autoscroll
font size
0
reset
how to read this tab
guitar tuner
edit
Autoscroll
slow
fast
+/-
esc
set tempo
stop
intro
|--------|
|--------|
|--------|
|-0------|
|-0--8-7-|
|-0--8-7-|

verse                                  x8
|--------------------------------------|
|--------------------------------------|
|--------------------------------------|
|--------------------------------------|
|------5555-44444444-11111111-00000000-|
|-0000---------------------------------|

chorus                                                     x3
|-----------------------------------------------------------|
|-----------------------------------------------------------|
|-----------------------------------------------------------|
|-----------------------------------------------------------|
|----------5*----------------5*----------5*-----------------|
|-00000000----00000-00000000----00000000----00000-00000000--|

|--------------------------------------------------------------|
|--------------------------------------------------------------|
|--------------------------------------------------------------|
|--------------------------------------------------------------|
|----------5*----------------5*----------5*----------------8-7-|
|-00000000----00000-00000000----00000000----00000-00000000-8-7-|

solo (play verse riff x4 underneath)

verse                                  x4
|--------------------------------------|
|--------------------------------------|
|--------------------------------------|
|--------------------------------------|
|------5555-44444444-11111111-00000000-|
|-0000---------------------------------|

breakdown           x4
|-------------------|---|
|-------------------|---|
|-------------------|---|
|-0---7-6-------000-|-0-|
|-0---5-4--8--7-000-|-0-|
|-0--------8--7-000-|-0-|

outro                                                            x2
|-----------------------------------------------------------------|---|
|-----------------------------------------------------------------|---|
|-----------------------------------------------------------------|---|
|-----------------------------------------------------------------|-0-|
|-------------------------------------------------------------8-7-|-0-|
|-00000000----00000-00000000----00000000----00000-00000000----8-7-|-0-|
                             x4                           
|-----------------------------|
|-----------------------------|
|-----------------------------|
|-----------------------------|
|-----------------------------|
|-00000000----00000-00000000--|
                                                                 x2
|-----------------------------------------------------------------|---|
|-----------------------------------------------------------------|---|
|-----------------------------------------------------------------|---|
|-----------------------------------------------------------------|-0-|
|-------------------------------------------------------------8-7-|-0-|
|-00000000----00000-00000000----00000000----00000-00000000----8-7-|-0-|

losingyou109@yahoo.com
the names sean by the way

            
            
Suggest correction
Creating personal tab
Creating personal tab
You can edit any tab online and save it as your Personal.

You can edit, replace or remove any tab part or add personal notes – all changes will be seen only by you.

Personal tabs can be accessed anytime from any device, even offline.
Learn more »
Give kudos to tab author, rate the tab!
1 2 3 4 5
comments
print report bad tab
5 comments total. Showing first comments.
0 reply
wild577mxracer 832 Jan 14, 2009 02:29 PM

this isnt close

0 reply
SensesFail_dude 204 Aug 05, 2009 11:43 AM

this is actually right, its just not the right tuning

0 reply
13meansoctave 10 Aug 15, 2011 10:24 AM

you guys are moronic, this is pretty close except his pinch is the wrong key. as for the "breakdown" it's a "left/right picking technique" hard for you tab losers to find rhythm. Feel the music. Listen..Carefully..

guest
Wanna post a correction for this tab? Suggest correction