Oops, an error
Loading. Please wait.

Quisiera tab

29 views 1 this week
no commentswrite comment
1 2 3 4 5
3 more votes to show rating
add to favorites
×
Save as Personal and add changes to this tab that will be seen only by you. Learn more ›
×
You can save this tab as Personal to edit and correct it or add notes. All changes will be seen only by you. Learn more »
launch autoscroll
font size
0
reset
how to read this tab
guitar tuner
edit
Autoscroll
slow
fast
+/-
esc
set tempo
stop
Bueno esta es mi versión un poco mas completa:
josue_182
xxxxxxxxxxxxxxxxxxxxxxxxxxxxxxxxxxxxxxxxxxxxxxxxxxxxxxxxxxxxx
Intro :
Guitarra 1
a|----------------------------------------------------|
b|----------------------------------------------------|
G|-----5-----5---5-----5----5---5-----5----5---5~~----| X 4 tiempos
D|---5---------------5--------------5-----------------|
A|-3-----3-3---3--------------------------------------|
E|-----------------3-----33---3---5-----55---5--------|

Guitarra 2: esta entra al 3ser tiempo
a|--------------------------------------------------------|
b|--------------------------------------------------------|
G|-----4-----4------4-----4-3-----4-----4-----4-----4-3~~-|X 4 tiempos
D|---4-----4--------------------4-----4-------------------|
A|-2-----2-----2-2----2-2---------------------------------|
E|----------------------------2-----2-----2-2---2-2-------|

Guitarra 3: esta entra al final de cada tiempo de la primera
a|------------------------| |--------------------|
b|------------------------| |--------------------|
G|---5~~~~~~~~------------| |---9~~~~~~~~--------|  x 2
D|---5~~~~~~~~------------| |---x----------------|
A|---3~~~~~~~~------------| |---7~~~~~~~~--------|
E|------------------------| |--------------------|

Guitarra1: con distorsión
a|--------------------------------------------|
b|--------------------------------------------|
G|---555555555555-555555555555-5555555-5555---| x 2
D|---555555555555-555555555555-5555555-5555---|
A|---333333333333-----------------------------|
E|----------------333333333333-5555555-3333---|

Guitarra 2:

a|------------------------------------------------------------|
b|------------------------------------------------------------|
G|---555555555555/121212121212121212121212--9-9-9-9--9/10?-9--|
D|---xxxxxxxxxxxx/xxxxxxxxxxxxxxxxxxxxxxxx--x-x-x-x--x/-x--x--|
A|---333333333333/101010101010101010101010--7-7-7-7--7/-8--7--|
E|------------------------------------------------------------|

Verso

Guitarra 1:

a|--------------------------------------------------------|
b|--------------------------------------------------------|
G|-----4-----4------4-----4-3-----4-----4-----4-----4-3~~-| X 4
D|---4-----4--------------------4-----4-------------------|
A|-2-----2-----2-2----2-2---------------------------------|
E|----------------------------2-----2-----2-2---2-2-------|

Guitarra 2:

a|-------------------|
G|--x---5~-----------|
D|--x---5~-----------|  esto lo hace varias veces
A|--x---3~-----------|
E|-------------------|

Coro

Guitarra 1:

a|-----------------------------------------------------|
b|-----------------------------------------------------|
G|---------------------------555555555555--------------|
D|-333333333333-555555555555-555555555555-777777777777-|
A|-333333333333-555555555553-333333333333-777777777777-|
E|-111111111111-333333333333--------------555555555555-|

a|-------------------------------|
b|-------------------------------|
G|---------------------------5~~-|
D|-333333333333-555555555555-5~~-|
A|-333333333333-555555555553-3~~-|
E|-111111111111-333333333333-----|

Guitarra 2:

a|----------------------------------------------------|
b|----------------------------------------------------|
G|-10-9-10-9-12-------12-10-12-10-------9-7-9-7-------|
D|--x?x--x?x?-x?(X 2)--x--x--x--x?(X 2)-x-x-x-x?(X 2)-|
A|--8-7--8-7--8-------10--8-10--8-------7-5-7-5-------|
E|----------------------------------------------------|

a|--------------------|
b|--------------------|
G|-7-9-10-9-12-10-9-7-|
D|-x-x-x--x-x--x--x-x-|
A|-5-7--8-7-10--8-7-5-|
E|--------------------|

a|------------------------------------------|
b|------------------------------------------|
G|-10-9-10-9-12-------12-10-12-10-------9~~-|
D|--x?x--x?x?-x?(X 2)--x--x--x--x?(X 2)-x~~-|
A|--8-7--8-7--8-------10--8-10--8-------7~~-|
E|------------------------------------------|

Guitarra 3: entra al terminar guitar 1 y 2

a|-----------------------------|
b|-----------------------------|
G|-----4-----4------4-----4----| varias veces
D|---4-----4-----4------4------|
A|-2-----2-----2------2--------|
E|-----------------------------|

Guitarra1:

a|--------------------------------------------|
b|--------------------------------------------|
G|---555555-555555-5555555-5555---------------| x 2
D|---555555-555555-5555555-5555---------------|
A|---333333-----------------------------------|
E|-----------------3333333-5555555-3333-------|

Guitarra 2:
a|-----------------------------------------|
b|-----------------------------------------|
G|---555555/121212121212--9-9-9-9-9/10?-9--|
D|---xxxxxx/xxxxxxxxxxxx--xxxxxxxxxx--x-x--|X2
A|---333333/101010101010--7-7-7-7-7/-8--7--|
E|-----------------------------------------|

verso

Guitarra 1:

a|--------------------------------------------------------|
b|--------------------------------------------------------|
G|-----4-----4------4-----4-3-----4-----4-----4-----4-3~~-| X 4
D|---4-----4--------------------4-----4-------------------|
A|-2-----2-----2-2----2-2---------------------------------|
E|----------------------------2-----2-----2-2---2-2-------|

Guitarra 2:

a|-------------------|
G|--x---5~-----------|
D|--x---5~-----------|  esto lo hace varias veces
A|--x---3~-----------|
E|-------------------|

Coro

Guitarra 1:

a|-----------------------------------------------------|
b|-----------------------------------------------------|
G|---------------------------555555555555--------------|
D|-333333333333-555555555555-555555555555-777777777777-|
A|-333333333333-555555555553-333333333333-777777777777-|
E|-111111111111-333333333333--------------555555555555-|

a|-------------------------------|
b|-------------------------------|
G|---------------------------5~~-|
D|-333333333333-555555555555-5~~-|
A|-333333333333-555555555553-3~~-|
E|-111111111111-333333333333-----|

Guitarra 2:

a|----------------------------------------------------|
b|----------------------------------------------------|
G|-10-9-10-9-12-------12-10-12-10-------9-7-9-7-------|
D|--x?x--x?x?-x?(X 2)--x--x--x--x?(X 2)-x-x-x-x?(X 2)|
A|--8-7--8-7--8-------10--8-10--8-------7-5-7-5-------|
E|----------------------------------------------------|

a|--------------------|
b|--------------------|
G|-7-9-10-9-12-10-9-7-|
D|-x-x-x--x-x--x--x-x-|
A|-5-7--8-7-10--8-7-5-|
E|--------------------|

a|------------------------------------------|
b|------------------------------------------|
G|-10-9-10-9-12-------12-10-12-10-------9~~-|
D|--x?x--x?x?-x?(X 2)--x--x--x--x?(X 2)-x~~-|
A|--8-7--8-7--8-------10--8-10--8-------7~~-|
E|------------------------------------------|

Guitarra 1:

a|-----------------------------------|
b|---------7-----7-----7-----7-5-----|
G|-----4-4---4-4---4-4---4-4---------| 8 tiempos
D|-----------------------------------|
A|-----------------------------------|
E|-----------------------------------|

Guitarra 2: esta entra al 4 tiempo de la otra

a|---------2-----2-----2-----2-0-----|
b|-------0---------------------------|
G|-----4-----4-4---4-4---4-4---------| 8 tiempos
D|-----------------------------------|
A|-----------------------------------|
E|-----------------------------------|

Guitarra 1: ahora con distorcion

a|-----------------------------------|
b|---------7-----7-----7-----7-5-----|
G|-----4-4---4-4---4-4---4-4---------| 4 tiempos
D|-----------------------------------|
A|-----------------------------------|
E|-----------------------------------|

Guitarra 2: también con distorcion

a|-----------------------------------|
b|-----------------------------------|
G|------4-----4-----4-----4-3--------| 4 tiempos
D|-----------------------------------|
A|--2-2---2-2---2-2---2-2------------|
E|-----------------------------------|
  PM??????????????????????????

 FINAL

Guitarra 1:

a|-----------------------------------------------------|
b|-----------------------------------------------------|
G|---------------------------555555555555--------------|
D|-333333333333-555555555555-555555555555-777777777777-|
A|-333333333333-555555555553-333333333333-777777777777-|
E|-111111111111-333333333333--------------555555555555-|

a|-------------------------------|
b|-------------------------------|
G|---------------------------5~~-|
D|-333333333333-555555555555-5~~-|
A|-333333333333-555555555553-3~~-|
E|-111111111111-333333333333-----|


Guitarra 2:

a|----------------------------------------------------|
b|----------------------------------------------------|
G|-10-9-10-9-12-------12-10-12-10-------9-7-9-7-------|
D|--x?x--x?x?-x?(X 2)--x--x--x--x?(X 2)-x-x-x-x?(X 2)-|
A|--8-7--8-7--8-------10--8-10--8-------7-5-7-5-------|
E|----------------------------------------------------|

a|--------------------|
b|--------------------|
G|-7-9-10-9-12-10-9-7-|
D|-x-x-x--x-x--x--x-x-|
A|-5-7--8-7-10--8-7-5-|
E|--------------------|

a|------------------------------------------|
b|------------------------------------------|
G|-10-9-10-9-12-------12-10-12-10-------9~~-|
D|--x?x--x?x?-x?(X 2)--x--x--x--x?(X 2)-x~~-|
A|--8-7--8-7--8-------10--8-10--8-------7~~-|
E|------------------------------------------|

LENGUAJE DE SIGNOS
----------------

~   -  vibrato
PM  - palm muting
x   -  muted slash


bueno esta es mi primer tab k subo a la cuerda espero k les sirva
creo k me faltan algunos detalles para aportaciones o comentarios ay
les dejo mi correo(josue.p.c_182@
saludos ala banda de aka "rock hidalgo"

            
            
Suggest correction
Creating personal tab
Creating personal tab
You can edit any tab online and save it as your Personal.

You can edit, replace or remove any tab part or add personal notes – all changes will be seen only by you.

Personal tabs can be accessed anytime from any device, even offline.
Learn more »
Give kudos to tab author, rate the tab!
1 2 3 4 5
comments
print report bad tab
guest
Wanna post a correction for this tab? Suggest correction