Oops, an error
Loading. Please wait.

Tratando De Ser Tu Amigo tab

69 views 1 this week
no commentswrite comment
1 2 3 4 5
3 more votes to show rating
add to favorites
×
Save as Personal and add changes to this tab that will be seen only by you. Learn more ›
×
You can save this tab as Personal to edit and correct it or add notes. All changes will be seen only by you. Learn more »
launch autoscroll
font size
0
reset
how to read this tab
guitar tuner
edit
Autoscroll
slow
fast
+/-
esc
set tempo
stop
Q onda banda esta s mi primera transcripcion y ps s d sta rola d
kilometro 46, la neta no conosco mucho d stos weyes
y no c si exista una version con guitarras electricas, esta
transcripcion es de una version acustica
que oi.
Un saludo a todos mis partys dl cobaev d nogales


intro
e|--0----0----0---------0----0----0---------0----0----0---------|
b|----3----3----3---3-----3----3----3---3-----3----3----3----3--|
g|--------------------------------------------------------------|
d|0-----0----0----0---------------------------------------------|
a|--------------------4-----4----4----4----2----2----2-----2----|
E|--------------------------------------------------------------|

o tambien si no ls sale pueden toklra asi, se oye parecido, ksi
ni se nota la diferencia y sta + facil

e|--0----0----0-----------0----0----0------------0----0----0------|
b|----3----3----3----3------3----3----3-----3------3----3----3---3|
g|------2----2----2-----------2----2----2------------2----2----2--|
d|0---------------------------------------------------------------|
a|---------------------4-----------------------2------------------|
E|----------------------------------------------------------------|

aki entran los violines y las guitarras con los acordes G y A
luego van los acordes
D-A-Bm-G-A

D            A            Bm
Otro dia sentado aqui solo
            G      A
esperando (esperando)
D                    A
que el sonido del telefono
                  Bm           G      A
despierte la esperanza de que seas tu
D             A                     Bm
esperando q revivas con palabras aquella relacion
      G     A
que fuimos tu y yo.

D-A-Bm-G

D              A
Y otro dia pensando por que no estas aqui
Bm                       G
y si te extraño y me extrañas por que no seguir.

D              A
Y otro dia pensando por que no estas aqui
Bm                       G
y si te extraño y me extrañas por que no seguir.

D                      A
Y solo me quedo con tu amistad
                     Bm
y no me puedo conformar
      G
esta situacion no me gusta

D                 A
Pero solo si te quiero tener aqui
            Bm
tendra que ser asi
       G
¿por que asi?

solo
e|-------------------------------------------------------------|
b|-------------------------------------------------------------|
g|---0--2/4---2---2--2-2-2--2-2------0--2/4--------------------|
d|-4-------------------------------4----------4---4--4-4-4--4-4|
a|-------------------------------------------------------------|
E|-------------------------------------------------------------|

E|------------------------------------------------|
B|------------------------------------------------|
g|---0--2/4---2---2--2-2-2--2-2-------------------|
d|4--------------------------------4-5---5/7---5-4|
a|------------------------------------------------|
E|------------------------------------------------|
*(el solo se hace dos veces)

D                  A
Esta noche estare solo
               Bm           G
ya que tu te fuiste de mi
D                  A                 Bm
y me fumo un cigarrillo leyendo tu carta
                       G
donde me dices que ya nada junto a mi te falta

D                A
pero todo ya acabo

se te acabo el amor
Bm
y me he quedado solo
G
y me he quedado solo

D                A
pero todo ya acabo

se te acabo el amor
Bm
y me he quedado solo
G
y me he quedado solo

D                      A
Y solo me quedo con tu amistad
                     Bm
y no me puedo conformar
      G
esta situacion no me gusta

D                  A
Pero solo si te quiero tener aqui
            Bm
tendra que ser asi
       G
¿por que asi?

D                  A
Y esta noche te vere pasar
         Bm              G
y me va a doler el no poderte abrazar
D                       A                  Bm      G
y estar tan serca de tu boca y no poderla besar

D                      A
Y solo me quedo con tu amistad
                    Bm
y no me puedo conformar
      G
esta situacion no me gusta

D                 A
Pero solo si te quiero tener aqui
           Bm
tendra que ser asi
      G
¿por que asi?
D-A-Bm-G-D

y ahi stuvo
espero q les sirva
dudas, sugerencias, y mentadas d madre
a spider_3.0@

            
            
Suggest correction
Creating personal tab
Creating personal tab
You can edit any tab online and save it as your Personal.

You can edit, replace or remove any tab part or add personal notes – all changes will be seen only by you.

Personal tabs can be accessed anytime from any device, even offline.
Learn more »
Give kudos to tab author, rate the tab!
1 2 3 4 5
comments
print report bad tab
guest
Wanna post a correction for this tab? Suggest correction