Oops, an error
Loading. Please wait.

Real Life Real Heart tab

1,273 views 1 this week
no commentswrite comment
1 2 3 4 5
2 more votes to show rating
add to favorites
×
Save as Personal and add changes to this tab that will be seen only by you. Learn more ›
×
You can save this tab as Personal to edit and correct it or add notes. All changes will be seen only by you. Learn more »
launch autoscroll
font size
0
reset
how to read this tab
guitar tuner
edit
Autoscroll
slow
fast
+/-
esc
set tempo
stop
rirura riruha


kimura kaela


TRANSCRIBED BY RUDY GUZMAN


guzman_84@hotmail.com


                                                                              
e:---------------------------------------------------------------|
B:---------------------------------------------------------------|
G:-9--9--9--9--9---8--8--8--8--8---7--7--7--7--7---8--8--8--8--8-|
D:-9--9--9--9--9---9--9--9--9--9---9--9--9--9--9---9--9--9--9--9-|
A:-7--7--7--7--7---7--7--7--7--7---7--7--7--7--7---7--7--7--7--7-|
E:---------------------------------------------------------------|

e:---------------------------------------------------------------|
B:---------------------------------------------------------------|
G:-9--9--9--9--9---8--8--8--8--8---7--7--7--7--7---8--8--8--8--8-|
D:-9--9--9--9--9---9--9--9--9--9---9--9--9--9--9---9--9--9--9--9-|
A:-7--7--7--7--7---7--7--7--7--7---7--7--7--7--7---7--7--7--7--7-|
E:---------------------------------------------------------------|


            Watashi no               omamori      Ohana          maagaretto
e:------------------------------------------------------------------------|
B:------------------------------------------------------------------------|
G:-9--9--9--9--9--8---8--8--8--8--8------9---9---9---9--9---8--8--8--8--8-|
D:-9--9--9--9--9--9---9--9--9--9--9------10--10--10--10-10--9--9--9--9--9-|
A:-7--7--7--7--7--7---7--7--7--7--7------10--10--10--10-10--9--9--9--9--9-|
E:---------------------------------------8---8---8---8--8---7--7--7--7--7-|

         Chiisana                  watashi o        yasashisa de
e:-----------------------------------------------------------------------------|
B:-----------------------------------------------------------------------------|
G:-9--9--9--9--9--8---8--8--8--8--8------9---9---9---9--9---11--11--11--11--11-|
D:-9--9--9--9--9--9---9--9--9--9--9------10--10--10--10-10--12--12--12--12--12-|
A:-7--7--7--7--7--7---7--7--7--7--7------10--10--10--10-10--12--12--12--12--12-|
E:---------------------------------------8---8---8---8--8---10--10--10--10--10-|

     Tsutsumu 
e:----------------------------------------|
B:----------------------------------------|
G:-6--6-6--8--8-8--10---9/(7)-7/(5)-5/(3)-|
D:-7--7-7--9--9-9--11---x--x--x--x--x--x--|
A:-7--7-7--9--9-9--11---7/(5)-5/(3)-3/(1)-|
E:-5--5-5--7--7-7--9----------------------|

    hito ga 
e:---------------------------------------|
B:---------------------------------------|
G:-6--6-6--8--8-8--10---9/(12)-12/(9)--9-|
D:-7--7-7--9--9-9--11---x--x----x--x---x-|
A:-7--7-7--9--9-9--11---7/(10)-10/(7)--7-|
E:-5--5-5--7--7-7--9---------------------|

    sukina 
e:---------------------------------------------|
B:---------------------------------------------|
G:-6--6-6--8--8-8--10---7-7/(9)--9/(12)-12/(7)-|
D:-7--7-7--9--9-9--11---x-x--x---x--x---x---x--|
A:-7--7-7--9--9-9--11---5-5/(7)--7/(10)-10/(5)-|
E:-5--5-5--7--7-7--9---------------------------|

    hana de
e:--------------------------------------|
B:--------------------------------------|
G:-6--6-6--8--8-8------9--9--9--9--9--9-|
D:-7--7-7--9--9-9---9--9--9--9--9--9--9-|
A:-7--7-7--9--9-9---7--7--7--7--7--7--7-|
E:-5--5-5--7--7-7-----------------------|

          Tomadoi ga                otozureru            Toki ni kagitte
e:------------------------------------------------------------------------|
B:------------------------------------------------------------------------|
G:-9--9--9--9--9--8---8--8--8--8--8------9---9---9---9--9---8--8--8--8--8-|
D:-9--9--9--9--9--9---9--9--9--9--9------10--10--10--10-10--9--9--9--9--9-|
A:-7--7--7--7--7--7---7--7--7--7--7------10--10--10--10-10--9--9--9--9--9-|
E:---------------------------------------8---8---8---8--8---7--7--7--7--7-|

       Jibun o                    nazedaka                kurushimeteru
e:-----------------------------------------------------------------------------|
B:-----------------------------------------------------------------------------|
G:-9--9--9--9--9--8---8--8--8--8--8------9---9---9---9--9---11--11--11--11--11-|
D:-9--9--9--9--9--9---9--9--9--9--9------10--10--10--10-10--12--12--12--12--12-|
A:-7--7--7--7--7--7---7--7--7--7--7------10--10--10--10-10--12--12--12--12--12-|
E:---------------------------------------8---8---8---8--8---10--10--10--10--10-|

       Sonna 
e:----------------------------------------|
B:----------------------------------------|
G:-6--6-6--8--8-8--10---9/(7)-7/(5)-5/(3)-|
D:-7--7-7--9--9-9--11---x--x--x--x--x--x--|
A:-7--7-7--9--9-9--11---7/(5)-5/(3)-3/(1)-|
E:-5--5-5--7--7-7--9----------------------|

       toki koso
e:---------------------------------------|
B:---------------------------------------|
G:-6--6-6--8--8-8--10---9/(12)-12/(9)--9-|
D:-7--7-7--9--9-9--11---x--x----x--x---x-|
A:-7--7-7--9--9-9--11---7/(10)-10/(7)--7-|
E:-5--5-5--7--7-7--9---------------------|

      Yasashisa 
e:---------------------------------------------|
B:---------------------------------------------|
G:-6--6-6--8--8-8--10---7-7/(9)--9/(12)-12/(7)-|
D:-7--7-7--9--9-9--11---x-x--x---x--x---x---x--|
A:-7--7-7--9--9-9--11---5-5/(7)--7/(10)-10/(5)-|
E:-5--5-5--7--7-7--9---------------------------|

       agetaino
e:--------------------------------------|
B:--------------------------------------|
G:-6--6-6--8--8-8------9--9--9--9--9--9-|
D:-7--7-7--9--9-9---9--9--9--9--9--9--9-|
A:-7--7-7--9--9-9---7--7--7--7--7--7--7-|
E:-5--5-5--7--7-7-----------------------|


   chorus:
    Wasurenaide mitsumeru koto o
e:-0--0--0-0-0-0-----------------------------------|
B:-0--0--0-0-0-0--4-4-4-4-4-4-4-4--2-2-2-2-2-2-2-2-|
G:-1--1--1-1-1-1--4-4-4-4-4-4-4-4--2-2-2-2-2-2-2-2-|
D:-2--2--2-2-2-2--4-4-4-4-4-4-4-4--2-2-2-2-2-2-2-2-|
A:-2--2--2-2-2-2--2-2-2-2-2-2-2-2--0-0-0-0-0-0-0-0-|
E:-0--0--0-0-0-0-----------------------------------|

     Ima dekirudeshoo?
e:--------------------------------------------------------------|
B:----------------5-5-5-5-5-5-5--2-2-2-2-2-2-2-2--4-4-4-5-------|
G:-5-5-5-5-5-5-5--6-6-6-6-6-6-6--2-2-2-2-2-2-2-2--4-4-4---4-----|
D:-6-6-6-6-6-6-6--6-6-6-6-6-6-6--2-2-2-2-2-2-2-2--4-4-4-----4---|
A:-6-6-6-6-6-6-6--4-4-4-4-4-4-4--0-0-0-0-0-0-0-0--2-2-2-------2-|
E:-4-4-4-4-4-4-4------------------------------------------------|

     Imashikanai kono jikan o
e:-0--0--0-0-0-0-----------------------------------|
B:-0--0--0-0-0-0--4-4-4-4-4-4-4-4--2-2-2-2-2-2-2-2-|
G:-1--1--1-1-1-1--4-4-4-4-4-4-4-4--2-2-2-2-2-2-2-2-|
D:-2--2--2-2-2-2--4-4-4-4-4-4-4-4--2-2-2-2-2-2-2-2-|
A:-2--2--2-2-2-2--2-2-2-2-2-2-2-2--0-0-0-0-0-0-0-0-|
E:-0--0--0-0-0-0-----------------------------------|

    Anata shidai de
e:------------------------------|
B:----------------5-5-5-5-5-5-5-|
G:-5-5-5-5-5-5-5--6-6-6-6-6-6-6-|
D:-6-6-6-6-6-6-6--6-6-6-6-6-6-6-|
A:-6-6-6-6-6-6-6--4-4-4-4-4-4-4-|
E:-4-4-4-4-4-4-4----------------|

     Real life nagareyuku....     x 3
e:-----------------------------------|
B:-2--2-2-2--4--4-4-4----------------|
G:-2--2-2-2--4--4-4-4--6--6-6--6-6-6-|
D:-2--2-2-2--4--4-4-4--6--6-6--6-6-6-|
A:-0--0-0-0--2--2-2-2--4--4-4--4-4-4-|
E:-----------------------------------|

e:-----------------------------------|
B:-2--2-2-2--4--4-4-4----------------|
G:-2--2-2-2--4--4-4-4--6--6-6--6-6-6-|
D:-2--2-2-2--4--4-4-4--6--6-6--6-6-6-|
A:-0--0-0-0--2--2-2-2--4--4-4--4-4-4-|
E:-----------------------------------|

                                      x3
e:-------------------------------------|
B:-------------------------------------|
G:-9--9--9--9--9-----------------------|
D:-9--9--9--9--9---7--5--7--8--7--5--2-|
A:-7--7--7--7--7---7--5--7--8--7--5--2-|
E:-----------------5--3--5--6--5--3--0-|


e:----------------------------------------|
B:----------------------------------------|
G:-9--9--9--9--9------------------------9-|
D:-9--9--9--9--9---7--5--7--8--7--5--2--9-|
A:-7--7--7--7--7---7--5--7--8--7--5--2--7-|
E:-----------------5--3--5--6--5--3--0----|


     Watashi no                           omamori
e:------------------------------------------------------------------------|
B:------------------------------------------------------------------------|
G:-9--9--9--9--9--8---8--8--8--8--8------9---9---9---9--9---8--8--8--8--8-|
D:-9--9--9--9--9--9---9--9--9--9--9------10--10--10--10-10--9--9--9--9--9-|
A:-7--7--7--7--7--7---7--7--7--7--7------10--10--10--10-10--9--9--9--9--9-|
E:---------------------------------------8---8---8---8--8---7--7--7--7--7-|

e:-----------------------------------------------------------------------------|
B:-----------------------------------------------------------------------------|
G:-9--9--9--9--9--8---8--8--8--8--8------9---9---9---9--9---11--11--11--11--11-|
D:-9--9--9--9--9--9---9--9--9--9--9------10--10--10--10-10--12--12--12--12--12-|
A:-7--7--7--7--7--7---7--7--7--7--7------10--10--10--10-10--12--12--12--12--12-|
E:---------------------------------------8---8---8---8--8---10--10--10--10--10-|


e:----------------------------------------|
B:----------------------------------------|
G:-6--6-6--8--8-8--10---9/(7)-7/(5)-5/(3)-|
D:-7--7-7--9--9-9--11---x--x--x--x--x--x--|
A:-7--7-7--9--9-9--11---7/(5)-5/(3)-3/(1)-|
E:-5--5-5--7--7-7--9----------------------|

e:---------------------------------------|
B:---------------------------------------|
G:-6--6-6--8--8-8--10---9/(12)-12/(9)--9-|
D:-7--7-7--9--9-9--11---x--x----x--x---x-|
A:-7--7-7--9--9-9--11---7/(10)-10/(7)--7-|
E:-5--5-5--7--7-7--9---------------------|

e:---------------------------------------------|
B:---------------------------------------------|
G:-6--6-6--8--8-8--10---7-7/(9)--9/(12)-12/(7)-|
D:-7--7-7--9--9-9--11---x-x--x---x--x---x---x--|
A:-7--7-7--9--9-9--11---5-5/(7)--7/(10)-10/(5)-|
E:-5--5-5--7--7-7--9---------------------------|

e:--------------------------------------|
B:--------------------------------------|
G:-6--6-6--8--8-8------9--9--9--9--9--9-|
D:-7--7-7--9--9-9---9--9--9--9--9--9--9-|
A:-7--7-7--9--9-9---7--7--7--7--7--7--7-|
E:-5--5-5--7--7-7-----------------------|


   chorus
e:-0--0--0-0-0-0-----------------------------------|
B:-0--0--0-0-0-0--4-4-4-4-4-4-4-4--2-2-2-2-2-2-2-2-|
G:-1--1--1-1-1-1--4-4-4-4-4-4-4-4--2-2-2-2-2-2-2-2-|
D:-2--2--2-2-2-2--4-4-4-4-4-4-4-4--2-2-2-2-2-2-2-2-|
A:-2--2--2-2-2-2--2-2-2-2-2-2-2-2--0-0-0-0-0-0-0-0-|
E:-0--0--0-0-0-0-----------------------------------|


e:--------------------------------------------------------------|
B:----------------5-5-5-5-5-5-5--2-2-2-2-2-2-2-2--4-4-4-5-------|
G:-5-5-5-5-5-5-5--6-6-6-6-6-6-6--2-2-2-2-2-2-2-2--4-4-4---4-----|
D:-6-6-6-6-6-6-6--6-6-6-6-6-6-6--2-2-2-2-2-2-2-2--4-4-4-----4---|
A:-6-6-6-6-6-6-6--4-4-4-4-4-4-4--0-0-0-0-0-0-0-0--2-2-2-------2-|
E:-4-4-4-4-4-4-4------------------------------------------------|


e:-0--0--0-0-0-0-----------------------------------|
B:-0--0--0-0-0-0--4-4-4-4-4-4-4-4--2-2-2-2-2-2-2-2-|
G:-1--1--1-1-1-1--4-4-4-4-4-4-4-4--2-2-2-2-2-2-2-2-|
D:-2--2--2-2-2-2--4-4-4-4-4-4-4-4--2-2-2-2-2-2-2-2-|
A:-2--2--2-2-2-2--2-2-2-2-2-2-2-2--0-0-0-0-0-0-0-0-|
E:-0--0--0-0-0-0-----------------------------------|


e:------------------------------|
B:----------------5-5-5-5-5-5-5-|
G:-5-5-5-5-5-5-5--6-6-6-6-6-6-6-|
D:-6-6-6-6-6-6-6--6-6-6-6-6-6-6-|
A:-6-6-6-6-6-6-6--4-4-4-4-4-4-4-|
E:-4-4-4-4-4-4-4----------------|

                                  x 3
e:-----------------------------------|
B:-2--2-2-2--4--4-4-4----------------|
G:-2--2-2-2--4--4-4-4--6--6-6--6-6-6-|
D:-2--2-2-2--4--4-4-4--6--6-6--6-6-6-|
A:-0--0-0-0--2--2-2-2--4--4-4--4-4-4-|
E:-----------------------------------|

e:-----------------------------------|
B:-2--2-2-2--4--4-4-4----------------|
G:-2--2-2-2--4--4-4-4--6--6-6--6-6-6-|
D:-2--2-2-2--4--4-4-4--6--6-6--6-6-6-|
A:-0--0-0-0--2--2-2-2--4--4-4--4-4-4-|
E:-----------------------------------|


                                       x7
e:-------------------------------------|
B:-------------------------------------|
G:-9--9--9--9--9-----------------------|
D:-9--9--9--9--9---7--5--7--8--7--5--2-|
A:-7--7--7--7--7---7--5--7--8--7--5--2-|
E:-----------------5--3--5--6--5--3--0-|


e:----------------------------------|
B:----------------------------------|
G:-9--9--9--9--9--------------------|
D:-9--9--9--9--9---7--5--7--8--7--5-|
A:-7--7--7--7--7---7--5--7--8--7--5-|
E:-----------------5--3--5--6--5--3-|

                  x 2
e:------------------|
B:------------------|
G:------------------|
D:-7--5--7--8--7--5-|
A:-7--5--7--8--7--5-|
E:-5--3--5--6--5--3-|


e:--------------------------------------------|
B:--------------------------------------------|
G:-9\-----------------------------------------|
D:-9\-----------------------------------------|
A:-7\-----------------------------------------|
E:--------------------------------------------|


hillo son mex

26/04/09

updated 7/04/12

            
            
Suggest correction
Creating personal tab
Creating personal tab
You can edit any tab online and save it as your Personal.

You can edit, replace or remove any tab part or add personal notes – all changes will be seen only by you.

Personal tabs can be accessed anytime from any device, even offline.
Learn more »
Give kudos to tab author, rate the tab!
1 2 3 4 5
comments
print report bad tab
guest
You may want to rate the tab now too:
select rating
Wanna post a correction for this tab? Suggest correction