Oops, an error
Loading. Please wait.

Sleep tab

version 3
version 3

Whole song

6,999 views 12 this week
6 commentsread comments
1 2 3 4 5
x 10
add to favorites
×
Save as Personal and add changes to this tab that will be seen only by you. Learn more ›
×
You can save this tab as Personal to edit and correct it or add notes. All changes will be seen only by you. Learn more »
launch autoscroll
font size
0
reset
how to read this tab
guitar tuner
edit
Autoscroll
slow
fast
+/-
esc
set tempo
stop
-----------------------------------------------------------------
Sleep (instrumental - Kimya Dawson
-----------------------------------------------------------------
Tabbed by: xTBCGx

A beautifully peaceful song that I couldn't find the correct tabs for so I just decided 
make my own. This is my first tab. :)

Standard tuning
Capo: 7th fret
Tabs are in relation to the capo

-----------------------------------------------------------------

Played once through as an intro


e|-3--3--3--2--2--2-|
B|------------------|
G|-------------2--0-|
D|-------0--0-------|
A|----2-------------|
E|-3----------------| Repeat x3

e|-0--0--0--2--2--2-|
B|----------------3-|
G|-------0-----2----|
D|-0--2-----0-------|
A|------------------|
E|------------------| slight pause before repeating.

Repeat entire tab x2 while humming the tune.
-----------------------------------------------------------------

There you have it! A very simple song considering how pretty it sounds.
Basically all you're doing is finger picking the chords G and D.

            
            
Suggest correction
Creating personal tab
Creating personal tab
You can edit any tab online and save it as your Personal.

You can edit, replace or remove any tab part or add personal notes – all changes will be seen only by you.

Personal tabs can be accessed anytime from any device, even offline.
Learn more »
comments
print report bad tab
6 comments total. Showing first comments.
0 reply
Hamypig 35 Aug 19, 2011 01:57 PM

e|-3--3--3--2--2--2-|
B|------------------|
G|-------------2----|
D|-------0--0-----0-|
A|----2-------------|
E|-3----------------|

i think it should be like this :)

0 reply
xTBCGx 51 May 01, 2013 10:28 PM

You're right but I couldn't figure out how to correct it. Thanks!

0 reply
xTBCGx 51 May 01, 2013 10:31 PM

e|-3--3--3--2--2--2-|
B|------------------|
G|-------------2----|
D|-------0--0-----0-|
A|----2-------------|
E|-3----------------|

e|-0--0--0--2--2--2-|
B|----------------3-|
G|-------0-----2----|
D|----2-----0-------|
A|-3----------------|
E|------------------|

guest
You may want to rate the tab now too:
select rating
Wanna post a correction for this tab? Suggest correction