Oops, an error
Loading. Please wait.

Impermanent tab

40 views 3 this week
no commentswrite comment
1 2 3 4 5
3 more votes to show rating
add to favorites
×
Save as Personal and add changes to this tab that will be seen only by you. Learn more ›
×
You can save this tab as Personal to edit and correct it or add notes. All changes will be seen only by you. Learn more »
launch autoscroll
font size
0
reset
how to read this tab
guitar tuner
edit
Autoscroll
slow
fast
+/-
esc
set tempo
stop
Standard Tuning
Capo 4
(https://www.youtube.com/watch?v=BZNHQRmKtwY)

    C     Dadd4    D/F#   Em7/B     G 
e|--0--| |--x--| |--3--| |--3--| |--3--|
B|--1--| |--3--| |--2--| |--3--| |--3--|
G|--0--| |--0--| |--3--| |--0--| |--0--|
D|--2--| |--4--| |--0--| |--2--| |--0--|
A|--3--| |--5--| |--0--| |--2--| |--2--|
E|--x--| |--x--| |--3--| |--x--| |--3--|

[Intro/Instrumental/Verse/Outro strum pattern]
    G              Em7/B  D/F#
e|--3---3---3-3-3--3-3-3--3-3-3---------------------------------------------|
B|--3---3---3-3-3--3-3-3--3-3-3---------------------------------------------|
G|--0h2-2h0-0-0-0---------2-2-2---------------------------------------------|
D|-----------------2-2-2----------------------------------------------------|
A|--x---x---x-x-x--2-2-2----------------------------------------------------|
E|--3---3---3-3-3---------2-2-2---------------------------------------------|

[Intro]
    G              Em7/B  D/F#
e|--3---3---3-3-3--3-3-3--3-3-3---------------------------------------------|
B|--3---3---3-3-3--3-3-3--3-3-3---------------------------------------------|
G|--0h2-2h0-0-0-0---------2-2-2---------------------------------------------|
D|-----------------2-2-2----------------------------------------------------|
A|--x---x---x-x-x--2-2-2----------------------------------------------------|
E|--3---3---3-3-3---------2-2-2---------------------------------------------| (x4)

[Verse 1]
G               Em7/B           D/F#
     Three sides should make it stronger 
     G          Em7/B      D/F#
But I can’t hide, I got my doubts
G          Em7/B     D/F#     
     Inside I see it crumbling

[Instrumental]
G Em7/B D/F#

[Verse 2]
G          Em7/B        D/F#          G
     I know, there is a beauty in that we go
Em7/B            D/F#
     and that it ends
G                   Em7/B  D/F#
     So please don’t go on reminding me

[Instrumental]
G Em7/B D/F#

[Pre-chorus]
C                       Dadd4                  C 
     Isn’t it enough to be, isn’t it enough to be
                   Dadd4
Isn’t it enough to be here

[Chorus 1]
          G                    D/F#
e|-------------------------------------------------------------|
B|-------------------------------------------------------------|
G|-------------------------------------------------------------|
D|--------0---------------------0------------------------------|
A|-------------------------------------------------------------|
E|--------3---------------------2------------------------------|
We’ll find home in the stars,      hope in a heart that mends

    Em                          C
e|-------------------------------------------------------------|
B|-------------------------------------------------------------|
G|-------------------------------------------------------------|
D|--2---------------------------2------------------------------|
A|--2---------------------------3------------------------------|
E|-------------------------------------------------------------|
      This is the start and end,  we are the impermanent

[Instrumental]
    G              Em7/B  D/F#
e|--3---3---3-3-3--3-3-3--3-3-3---------------------------------------------|
B|--3---3---3-3-3--3-3-3--3-3-3---------------------------------------------|
G|--0h2-2h0-0-0-0---------2-2-2---------------------------------------------|
D|-----------------2-2-2----------------------------------------------------|
A|--x---x---x-x-x--2-2-2----------------------------------------------------|
E|--3---3---3-3-3---------2-2-2---------------------------------------------| (x4)

[Verse 3]
G              Em7/B              D/F#
     It’s clear that we don’t see eye to eye
G              Em7/B              D/F#
     And I fear there’s something wrong
G                    Em7/B       D/F#
     When you’re near I feel I’m crumbling

[Instrumental]
    G              Em7/B  D/F#
e|--3---3---3-3-3--3-3-3--3-3-3---------------------------------------------|
B|--3---3---3-3-3--3-3-3--3-3-3---------------------------------------------|
G|--0h2-2h0-0-0-0---------2-2-2---------------------------------------------|
D|-----------------2-2-2----------------------------------------------------|
A|--x---x---x-x-x--2-2-2----------------------------------------------------|
E|--3---3---3-3-3---------2-2-2---------------------------------------------|

[Verse 4]
G                 Em7/B D/F#          
     So let’s stop imagining how it goes
G            Em7/B       D/F#
     It’s not changing a thing
G                  Em7/B        D/F#
     To have fought against the turning

[Instrumental]
    G              Em7/B  D/F#
e|--3---3---3-3-3--3-3-3--3-3-3---------------------------------------------|
B|--3---3---3-3-3--3-3-3--3-3-3---------------------------------------------|
G|--0h2-2h0-0-0-0---------2-2-2---------------------------------------------|
D|-----------------2-2-2----------------------------------------------------|
A|--x---x---x-x-x--2-2-2----------------------------------------------------|
E|--3---3---3-3-3---------2-2-2---------------------------------------------|

[Pre-chorus]
C                       Dadd4                  C 
     Isn’t it enough to be, isn’t it enough to be
                   Dadd4
Isn’t it enough to be here

[Chorus 2]
          G
We’ll find home in the stars
D/F#
     Hope in a heart that mends
Em
     This is the start and end
C
     We are the impermanent
          G
We’ll find home in the stars
D/F#
     Hope in a heart that mends
Em
     This is the start and end
C
     We are the impermanent

[Bridge]
D/F#
     We are the waiting creatures
Em      C    D/F#
Holding on to the words of hopeful teachers 
Em        C       D/F#
Wondering what is true
                      Em
All we have is all we know
                         C
Today’s just yesterday’s tomorrow
   Dadd4
It comes and goes

[Chorus 3]
          G                    D/F#
e|-------------------------------------------------------------|
B|-------------------------------------------------------------|
G|-------------------------------------------------------------|
D|--------0---------------------0------------------------------|
A|-------------------------------------------------------------|
E|--------3---------------------2------------------------------|
We’ll find home in the stars,      hope in a heart that mends

    Em                          C
e|-------------------------------------------------------------|
B|-------------------------------------------------------------|
G|-------------------------------------------------------------|
D|--2---------------------------2------------------------------|
A|--2---------------------------3------------------------------|
E|-------------------------------------------------------------|
      This is the start and end,  we are the impermanent

          G
We’ll find home in the stars
D/F#
     Hope in a heart that mends
Em
     This is the start and end
C
     We are the impermanent

[Outro] (x4)
G Em D/F#


***********************************

| h   Hammer-on

***********************************

            
            
Suggest correction
Creating personal tab
Creating personal tab
You can edit any tab online and save it as your Personal.

You can edit, replace or remove any tab part or add personal notes – all changes will be seen only by you.

Personal tabs can be accessed anytime from any device, even offline.
Learn more »
Give kudos to tab author, rate the tab!
1 2 3 4 5
comments
print report bad tab
guest
You may want to rate the tab now too:
select rating
Wanna post a correction for this tab? Suggest correction