Oops, an error
Loading. Please wait.

Memory tab

version 2
version 2

Whole song

1,119 views 3 this week
1 commentread comment
1 2 3 4 5
1 last vote to show rating
add to favorites
×
Save as Personal and add changes to this tab that will be seen only by you. Learn more ›
×
You can save this tab as Personal to edit and correct it or add notes. All changes will be seen only by you. Learn more »
launch autoscroll
font size
0
reset
how to read this tab
guitar tuner
edit
Autoscroll
slow
fast
+/-
esc
set tempo
stop
CAPO ON 3
I forgot to say that before

Intro/Verse:

e|-------------------------------------------------------------|
B|--------0----------------0--------------0-------------0------|
G|--0--------0------0--------0------0--------0-----0-------0---|
D|----0----------------0---------------0-------------0---------|
A|--3---3-----3----3/5---5----5----5/7---7----7----7---7----7--|
E|-------------------------------------------------------------|

e|-------------------------------------------------------------|
B|--------0----------------0--------------0------7~~~----------|
G|--0--------0------0--------0------0--------0-----------------|
D|----0----------------0---------------0-----------------------|
A|--3---3-----3----3/5---5----5----5/7---7----7----------------|
E|-------------------------------------------------------------|

get beneath the bed it's another attack
but when the monster turned man, you don't know how to react
and daddy named it the singing bridge in memory of the ghosts that lived here
my timing could not have been better,
she cried


Chorus:

e|-------3---------3-------2--------0-----0-------0-----0------|
B|-0-----0---------0-------0--------0-----0-------0-----0------|
G|---0------0--------0-------0--------0------0------0------0---|
D|-2---2------2----2---2---0---0-------------------------------|
A|----------------------------------3---3-----0---3---3------0-|
E|-------------------------------------------------------------|

although she's gone
although its over
a memory hangs on
a memory


as the dust settles and the smoke is rising
up about the clouds a dove is crying
I leave a trail of copper faces all around the town in different places
I'd like to think that they'll be happy
Or try


End:

e|-------3---------3------3/5-------0-----0-------0-----0------|
B|-0-----0---------0-------0--------0-----0-------0-----0------|
G|---0------0--------0-------0--------0------0------0------0---|
D|-2---2------2----2---2---0---0-------------------------------|
A|----------------------------------3---3-----0---3---3------0-|
E|-------------------------------------------------------------|

e|-------------------------------------------------------------|
B|--------0----------------0--------------0-------------0------|
G|--0--------0------0--------0------0--------0-----0-------0---|
D|----0----------------0---------------0-------------0---------|
A|--3---3-----3----3/5---5----5----5/7---7----7----7---7----7--|
E|-------------------------------------------------------------|

e|-------------------------------------------------------------|
B|--------0----------------0--------------0------7~~~----------|
G|--0--------0------0--------0------0--------0-----------------|
D|----0----------------0---------------0-----------------------|
A|--3---3-----3----3/5---5----5----5/7---7----7----------------|
E|-------------------------------------------------------------|

            
            
Suggest correction
Creating personal tab
Creating personal tab
You can edit any tab online and save it as your Personal.

You can edit, replace or remove any tab part or add personal notes – all changes will be seen only by you.

Personal tabs can be accessed anytime from any device, even offline.
Learn more »
Give kudos to tab author, rate the tab!
1 2 3 4 5
comments
print report bad tab
1 comment total.
0 reply
Parreth 133 Mar 07, 2012 08:07 AM

Minor changes

Intro/Verse is wrong

|----------------------------------------------------------|
|------0--------------0--------------0------------0--------|
|-0------0-----0--------0-----0--------0-----0------0------|
|---0--------------0--------------0------------0-----------|
|-3---3----3---3/5---5----5---5/7---7----7-------7----7----|
|----------------------------------------------------------|

|----------------------------------------------------------|
|-------0---------------0---------------0-----7------------|
|-0-------0-----0---------0-----0---------0----------------|
|---0---------------0---------------0----------------------|
|-3---3-----3---3/5---5-----5---5/7---7-----7--------------|
|----------------------------------------------------------|


Chorus is wrong

Chorus

|-3----3-------3-------2-------0----0-------0----0---------|
|-0------0-----0-------0-------0------0-----0------0-------|
|---0------------0-------0-------0------------0------------|
|-2---2----2---2---2---0---0-------------------------------|
|------------------------------3---3----3---3---3----0-----|
|----------------------------------------------------------|

guest
You may want to rate the tab now too:
select rating
Wanna post a correction for this tab? Suggest correction