Oops, an error
Loading. Please wait.

Memory ukulele

70 views 3 this week
no commentswrite comment
1 2 3 4 5
3 more votes to show rating
add to favorites
×
Save as Personal and add changes to this tab that will be seen only by you. Learn more ›
×
You can save this tab as Personal to edit and correct it or add notes. All changes will be seen only by you. Learn more »
launch autoscroll
font size
0
reset
transpose
0
reset
simplify chords
display chords
guitar tuner
edit
Autoscroll
slow
fast
+/-
esc
set tempo
stop
About this tab version
This is based off of Alina37's and Kengus's excellent guitar tabs for this song, I just adapted it to be playable on the ukulele. If you would rather just strum the chords instead of fingerpicking them, the (recommended, not required) chord fingerings and strumming patterns are listed at the top. If strumming, only strum the Em9 chord once. Was this info helpful? Yes No
Strumming Are these strumming patterns correct? Yes No
Intro, verse, interlude, & outro 170 bpm
1
 
 
2
 
 
3
 
 
4
 
 
Listen
Chorus 135 bpm
1
 
 
2
 
 
3
 
 
4
 
 
5
 
 
6
 
 
7
 
 
8
 
 
9
 
 
10
 
 
11
 
Listen
[Chords]
Cmaj7 - 0002
Gadd9 - 2232 or 0252
Em7   - 0202
Em9   - 0422
Em    - 0402 or 0432
Gmaj7 - 0222

[Intro]
  Cmaj7         Gadd9           Em7
A|---5---2-----|-----5---2-----|-----5---2-----|---5---2-----|
E|-------------|---------------|---------------|-------------|
C|-0---0-----0-|-0/2---2-----2-|-2/4---4-----4-|-4---4-----4-|
G|-0-------0---|-0---------0---|-0---------0---|-0-------0---|

  Cmaj7         Gadd9           Em7             Em9
A|---5---2-----|-----5---2-----|-----5---2-----|-9~----------|
E|-------------|---------------|---------------|-------------|
C|-0---0-----0-|-0/2---2-----2-|-2/4---4-----4-|-------------|
G|-0-------0---|-0---------0---|-0---------0---|-------------|

Cmaj7 Gadd9 Em7
Cmaj7 Gadd9 Em7 Em9

[Verse 1]
  Cmaj7         Gadd9           Em7
A|---5---2-----|-----5---2-----|-----5---2-----|---5---2-----|
E|-------------|---------------|---------------|-------------|
C|-0---0-----0-|-0/2---2-----2-|-2/4---4-----4-|-4---4-----4-|
G|-0-------0---|-0---------0---|-0---------0---|-0-------0---|

Cmaj7                     Gadd9
Get beneath the bed it's another attack
             Em7
But when the monster turns man don't know how to react

  Cmaj7         Gadd9           Em7
A|---5---2-----|-----5---2-----|-----5---2-----|---5---2-----|
E|-------------|---------------|---------------|-------------|
C|-0---0-----0-|-0/2---2-----2-|-2/4---4-----4-|-4---4-----4-|
G|-0-------0---|-0---------0---|-0---------0---|-0-------0---|

         Cmaj7              Gadd9
And then daddy named it the singing bridge
   Em7
In memory of the ghosts that lived here

  Cmaj7         Gadd9           Em7             Gadd9
A|---5---2-----|-----5---2-----|-----5---2-----|-----5---2-----|
E|-------------|---------------|---------------|---------------|
C|-0---0-----0-|-0/2---2-----2-|-2/4---4-----4-|-4\2---2-----2-|
G|-0-------0---|-0---------0---|-0---------0---|-0---------0---|

  Cmaj7         Gadd9           Em7             Em9
A|---5---2-----|-----5---2-----|-----5---2-----|-9~----------|
E|-------------|---------------|---------------|-------------|
C|-0---0-----0-|-0/2---2-----2-|-2/4---4-----4-|-------------|
G|-0-------0---|-0---------0---|-0---------0---|-------------|

Cmaj7   Gadd9  Em7       Gadd9     Cmaj7 Gadd9   Em7  Em9
    "My timing could not have been better,"  she cried

[Chorus]
  Em                 Gmaj7   Cmaj7                      Em                 Gmaj7   Cmaj7
A|-2-----2---|-2-----2-----|-7-----7-----|-7-----7-----|-2-----2---|-2-----2-----|-7-----7-----|-7-----7-----|
E|-3---------|-3-----2-----|---3---------|---3-------0-|-3---------|-3-----2-----|---3---------|---3-------0-|
C|-4---4---4-|-4---4-2---2-|-0---0-----0-|-0---0-------|-4---4---4-|-4---4-2---2-|-0---0-----0-|-0---0-------|
G|---0-------|---0-----0---|-4-------4---|-4-------4---|---0-------|---0-----0---|-4-------4---|-4-------4---|

Em  Gmaj7        Cmaj7
  Although she's gone
             Em
Although it's over
    Gmaj7     Cmaj7
A memory hangs on

  Em                 Gmaj7   Cmaj7                      Em                 Gmaj7   Cmaj7
A|-2-----2---|-2-----2-----|-7-----7-----|-7-----7-----|-2-----2---|-2-----2-----|-7-----7-----|-7-----7-----|
E|-3---------|-3-----2-----|---3---------|---3-------0-|-3---------|-3-----2-----|---3---------|---3-------0-|
C|-4---4---4-|-4---4-2---2-|-0---0-----0-|-0---0-------|-4---4---4-|-4---4-2---2-|-0---0-----0-|-0---0-------|
G|---0-------|---0-----0---|-4-------4---|-4-------4---|---0-------|---0-----0---|-4-------4---|-4-------4---|

       Em
A memory
  Gmaj7        Cmaj7
Although she's gone
             Em
Although it's over
    Gmaj7     Cmaj7
A memory hangs on
Cmaj7
A memory

[Interlude]
  Cmaj7         Gadd9           Em7
A|---5---2-----|-----5---2-----|-----5---2-----|---5---2-----|
E|-------------|---------------|---------------|-------------|
C|-0---0-----0-|-0/2---2-----2-|-2/4---4-----4-|-4---4-----4-|
G|-0-------0---|-0---------0---|-0---------0---|-0-------0---|

  Cmaj7         Gadd9           Em7             Em9
A|---5---2-----|-----5---2-----|-----5---2-----|-9~----------|
E|-------------|---------------|---------------|-------------|
C|-0---0-----0-|-0/2---2-----2-|-2/4---4-----4-|-------------|
G|-0-------0---|-0---------0---|-0---------0---|-------------|

Cmaj7 Gadd9 Em7
Cmaj7 Gadd9 Em7 Em9

[Verse 2]
  Cmaj7         Gadd9           Em7
A|---5---2-----|-----5---2-----|-----5---2-----|---5---2-----|
E|-------------|---------------|---------------|-------------|
C|-0---0-----0-|-0/2---2-----2-|-2/4---4-----4-|-4---4-----4-|
G|-0-------0---|-0---------0---|-0---------0---|-0-------0---|

Cmaj7                       Gadd9
As the dust settles and the smoke is rising
Em7
Up above the clouds a dove is crying

  Cmaj7         Gadd9           Em7
A|---5---2-----|-----5---2-----|-----5---2-----|---5---2-----|
E|-------------|---------------|---------------|-------------|
C|-0---0-----0-|-0/2---2-----2-|-2/4---4-----4-|-4---4-----4-|
G|-0-------0---|-0---------0---|-0---------0---|-0-------0---|

Cmaj7              Gadd9        Em7
I leave a trail of copper faces all around the town in different places

  Cmaj7         Gadd9           Em7             Gadd9
A|---5---2-----|-----5---2-----|-----5---2-----|-----5---2-----|
E|-------------|---------------|---------------|---------------|
C|-0---0-----0-|-0/2---2-----2-|-2/4---4-----4-|-4\2---2-----2-|
G|-0-------0---|-0---------0---|-0---------0---|-0---------0---|

  Cmaj7         Gadd9           Em7             Em9
A|---5---2-----|-----5---2-----|-----5---2-----|-9~----------|
E|-------------|---------------|---------------|-------------|
C|-0---0-----0-|-0/2---2-----2-|-2/4---4-----4-|-------------|
G|-0-------0---|-0---------0---|-0---------0---|-------------|

Cmaj7  Gadd9   Em7        Gadd9      Cmaj7 Gadd9
   I'd like to think that they'll be happy
   Em7 Em9
Or try

[Chorus]
  Em                 Gmaj7   Cmaj7                      Em                 Gmaj7   Cmaj7
A|-2-----2---|-2-----2-----|-7-----7-----|-7-----7-----|-2-----2---|-2-----2-----|-7-----7-----|-7-----7-----|
E|-3---------|-3-----2-----|---3---------|---3-------0-|-3---------|-3-----2-----|---3---------|---3-------0-|
C|-4---4---4-|-4---4-2---2-|-0---0-----0-|-0---0-------|-4---4---4-|-4---4-2---2-|-0---0-----0-|-0---0-------|
G|---0-------|---0-----0---|-4-------4---|-4-------4---|---0-------|---0-----0---|-4-------4---|-4-------4---|

Em  Gmaj7        Cmaj7
  Although she's gone
             Em
Although it's over
    Gmaj7     Cmaj7
A memory hangs on

  Em                 Gmaj7   Cmaj7                      Em                 Gmaj7   Cmaj7
A|-2-----2---|-2-----2-----|-7-----7-----|-7-----7-----|-2-----2---|-2-----2-----|-7-----7-----|-7-----7-----|
E|-3---------|-3-----2-----|---3---------|---3-------0-|-3---------|-3-----2-----|---3---------|---3-------0-|
C|-4---4---4-|-4---4-2---2-|-0---0-----0-|-0---0-------|-4---4---4-|-4---4-2---2-|-0---0-----0-|-0---0-------|
G|---0-------|---0-----0---|-4-------4---|-4-------4---|---0-------|---0-----0---|-4-------4---|-4-------4---|

       Em
A memory
  Gmaj7        Cmaj7
Although she's gone
             Em
Although it's over
    Gmaj7     Cmaj7
A memory hangs on
Cmaj7
A memory

[Outro]
  Em                   Gadd9    Cmaj7                      
A|-2-----2---|-2-------2-------|-7-----7-----|-7-----7-----|
E|-3---------|-3-------3/5-----|---3-----3---|---3-----3---|
C|-4---4---4-|-4---4---2-----2-|-0---0-----4-|-0---0-----4-|
G|---0-------|---0---------0---|-4-----4-----|-4-----4-----|

  Cmaj7         Gadd9           Em7
A|---5---2-----|-----5---2-----|-----5---2-----|---5---2-----|
E|-------------|---------------|---------------|-------------|
C|-0---0-----0-|-0/2---2-----2-|-2/4---4-----4-|-4---4-----4-|
G|-0-------0---|-0---------0---|-0---------0---|-0-------0---|

  Cmaj7         Gadd9           Em7             Em9
A|---5---2-----|-----5---2-----|-----5---2-----|-9~----------|
E|-------------|---------------|---------------|-------------|
C|-0---0-----0-|-0/2---2-----2-|-2/4---4-----4-|-------------|
G|-0-------0---|-0---------0---|-0---------0---|-------------|

Em Gadd9 Cmaj7
Cmaj7 Gadd9 Em7
Cmaj7 Gadd9 Em7 Em9

***********************************
| /   Slide-up
| \   Slide-down
| ~   Vibrato
***********************************

            
            
Suggest correction
Creating personal tab
Creating personal tab
You can edit any tab online and save it as your Personal.

You can edit, replace or remove any tab part or add personal notes – all changes will be seen only by you.

Personal tabs can be accessed anytime from any device, even offline.
Learn more »
Give kudos to tab author, rate the tab!
1 2 3 4 5
comments
print report bad tab
guest
You may want to rate the tab now too:
select rating
Wanna post a correction for this tab? Suggest correction