Oops, an error
Loading. Please wait.

Recreo tab

by Kinder
70 views 1 this week
no commentswrite comment
1 2 3 4 5
3 more votes to show rating
add to favorites
×
Save as Personal and add changes to this tab that will be seen only by you. Learn more ›
×
You can save this tab as Personal to edit and correct it or add notes. All changes will be seen only by you. Learn more »
launch autoscroll
font size
0
reset
how to read this tab
guitar tuner
edit
Autoscroll
slow
fast
+/-
esc
set tempo
stop
Una de mis favoritas de lo que es
Indie Electro-pop Experimental.
Ahi les va..

Intro: (Cada nota 8 veces, al ritmo)

|---(7)---(7)---(7)--(2)---|
|----9-----9-----5----4----|
|----9-----8-----4----4----|
|----9-----9-----6----4----|
|---(7)---(7)---(4)--(2)---|
|--------------------------|

Verso:

E             E7             C#m7
Desde aquí el sol se ve tan grande
     B
Quisiera tocarlo...
E      E7           C#m7
Escóndete, voy a buscarte
     B
Por todo el colegio
E        E7
Convertiremos todo
C#m7    B
En árboles gigantes

Coro:

A5     B
Comeremos manzanas
C#m7         B
Y más frutas inventadas
A5      B
Seremos Invencibles
C#m7        B
Si me besas y sonríes

E        E7  C#m7    B
Como ayer... naranana..

Verso:

E             E7
Si el cielo esta tan lejos
C#m7          B
Lo traeremos sin esfuerzo
E      E7         C#m7
Debo imaginar que tus zapatos
B
Son agua de mar..

Coro 2:

A5        B
Y todo esta mejor
   C#m7          B
Si le sonríes al sol (x2)

Interdulio:

|---(7)---(7)-(7)---(7)-(7)---(7)-(2)---|
|----9-----9---9-----9---5-----5---4----|
|----9-----9---8-----8---4-----4---4----|
|----9-----9---9-----9---6-----6---4----| (x2)
|---(7)---(7)-(7)---(7)-(4)---(4)-(2)---|
|---------------------------------------|

Y si tuvieras miedo    ------->
Puedo llevarte lejos          > Esta parte va
A ese lugar en donde          > con lo de arriba
El tiempo nunca avanza ------->

E               E7
Sigues inventando
        C#m7
Colores espaciales
B
Mientras todos
E                 E7
Siguen rodeándote en silencio
   C#m7       B
Y nos miran, somos nuevos

Coro 2:

A5        B
Y todo esta mejor
   C#m7          B
Si le sonríes al sol (x2)

(Cada nota 4 veces, al ritmo)

|---(7)---(7)---(7)--(2)---|
|----9-----9-----5----4----|
|----9-----8-----4----4----|
|----9-----9-----6----4----|
|---(7)---(7)---(4)--(2)---|
|--------------------------|

Arreglo:

|-----------16------------------16----------------------|
|--17-14---------------17-14----------------------------|
|--------16-----12-----------16-----12-----------12br---|
|-----------------------------------------13-15------13-|
|-------------------------------------------------------|
|-------------------------------------------------------|


______________________________________________________________________
NOTA:

    E    E7    C#m7  B   A5

|--(7)---(7)---(7)--(2)--------------------|
|---9-----9-----5----4----2----------------|
|---9-----8-----4----4----2----------------|
|---9-----9-----6----4----0----------------|
|--(7)---(7)---(4)--(2)--------------------|
|------------------------------------------|

( ) Las notas que están dentro del paréntesis,
    Se les llama nota fantasma
    Si quieren la tocan, no afecta mucho.

 br  Significa Bend Release

*En los versos la 2da Guitarra (Limpia) toca:

|-------------------------------------------------------------------|
|-------------------------------------------------------------------|
|-------------------------------------------------------------------|
|-------------------------------------------------------------------|
|-7777777777777777-6666666666666666-4444444444444444-22222222222222-|
|-------------------------------------------------------------------|

______________________________________________________________________

Chequeen mi Myspace


Hablamos!

Angelo

            
            
Suggest correction
Creating personal tab
Creating personal tab
You can edit any tab online and save it as your Personal.

You can edit, replace or remove any tab part or add personal notes – all changes will be seen only by you.

Personal tabs can be accessed anytime from any device, even offline.
Learn more »
Give kudos to tab author, rate the tab!
1 2 3 4 5
comments
print report bad tab
guest
Wanna post a correction for this tab? Suggest correction