Oops, an error
Loading. Please wait.

Billboard Beauty tab

by Kinesis
200 views 1 this week
1 commentread comment
1 2 3 4 5
x 3
add to favorites
×
Save as Personal and add changes to this tab that will be seen only by you. Learn more ›
×
You can save this tab as Personal to edit and correct it or add notes. All changes will be seen only by you. Learn more »
launch autoscroll
font size
0
reset
how to read this tab
guitar tuner
edit
Autoscroll
slow
fast
+/-
esc
set tempo
stop
Author
Kinesis
Billboard Beauty
Tabbed By Chris

http://www.kinesis-official.co.uk

The intro/verse riff I play on the E (nicer sound) but I think it's 
on the A, whatever it's played doesn't really matter

Intro Clean
e|-----------------------------------------|
B|-----------------------------------------|
G|-----------------------------------------|
D|-11111111-12121212-7777-5522-------------|
A|-11111111-12121212-7777-5522-------------|
E|--9 91010-10101010-5555-0000-------------|

Pre verse   Distortion comes in on the A5
e|-----------------------------------------|
B|-----------------------------------------|
G|-----------------------------------------|
D|-11111111-12121212-7777-5522-------------|
A|-11111111-12121212-7777-5522-------------|
E|--9 91010-10101010-5555-0000-------------|

Verse
e|-----------------------------------------|
B|-----------------------------------------|
G|-----------------------------------------|
D|-11111111-12121212-7777-5522-------------|
A|-11111111-12121212-7777-5522-------------|
E|--9 91010-10101010-5555-0000-------------|

Pre Chorus  Distortion again comes in on A5
e|-----------------------------------------|
B|-----------------------------------------|
G|-----------------------------------------|
D|-11111111-12121212-7777-5522-------------|
A|-11111111-12121212-7777-5522-------------|
E|--9 91010-10101010-5555-0000-------------|

Chorus Distortion
e|-----------------------------------------|
B|-----------------------------------------|
G|-------777--------6666-------------------|
D|--4444-777-77777--6666-------------------|
A|--4444-555-77777--4444-------------------|
E|--2222-----55555-------------------------|

e|-----------------------------------------|
B|-----------------------------------------|
G|--------7777-----------------------------|
D|--4444--7777--77-6-7-9-------------------|
A|--4444--5555--77-6-7-9-------------------|
E|--2222--------55-4-5-7-------------------|

e|-----------------------------------------|
B|-----------------------------------------|
G|-----------------------------------------|
D|--7------7------7------7-----------------|
A|--7------7------7------7-----------------|
E|--5p0----5p0----5p0----5p0---------------|

Interlude
e|-----------------------------------------|
B|-----------------------------------------|
G|--6-6-6-6-6-6-6-6------------------------|
D|------------------7-7-7-7-7-7-7-7--------|
A|-----------------------------------------|
E|-----------------------------------------|

Distortion
e|-----------------------------------------|
B|-----------------------------------------|
G|-77777777-77777777-----------------------|
D|-77777777-77777777-----------------------|
A|-55555555-44444444-----------------------|
E|-----------------------------------------|

Outro
e|-----------------------------------------|
B|-----------------------------------------|
G|--6-6-6-6-6-6-6-6------------------------|
D|------------------7-7-7-7-7-7-7-7--------|
A|-----------------------------------------|
E|-----------------------------------------|

e|--------|
B|--------|
G|-6b-----|
D|--------|
A|--------|
E|--------|

            
            
Suggest correction
Creating personal tab
Creating personal tab
You can edit any tab online and save it as your Personal.

You can edit, replace or remove any tab part or add personal notes – all changes will be seen only by you.

Personal tabs can be accessed anytime from any device, even offline.
Learn more »
Give kudos to tab author, rate the tab!
1 2 3 4 5
comments
print report bad tab
1 comment total.
0 reply
andrewbiles 4,785 Oct 11, 2003 08:00 PM

try this for the main clean riff.
e|-----------------------------------
B|-----------------------------------
G|-6-6--6-6-6-7-7-7------------------
D|-7-7--7-7-7-7-7-7--7-7--7-7-7-9-9-9
A|-4-4--4-4-4-5-5-5--7-7--7-7-7-7-7-7
E|-------------------5-5--5-5-5-7-7-7

Sounds more like it to me

guest
You may want to rate the tab now too:
select rating
Wanna post a correction for this tab? Suggest correction