Oops, an error
Loading. Please wait.

Rainbow In The Night tab

by Kinesis
280 views 1 this week
no commentswrite comment
1 2 3 4 5
2 more votes to show rating
add to favorites
×
Save as Personal and add changes to this tab that will be seen only by you. Learn more ›
×
You can save this tab as Personal to edit and correct it or add notes. All changes will be seen only by you. Learn more »
launch autoscroll
font size
0
reset
how to read this tab
guitar tuner
edit
Autoscroll
slow
fast
+/-
esc
set tempo
stop
Author
Difficulty
----------------------------------------------------------------------------
                       RAINBOW IN THE NIGHT - Kinesis
----------------------------------------------------------------------------
Tabbed by: Chris Colyer
Email: csc501@myway.com

Tuning: Drop D

Intro Bell/Chime:
e|--------10---------10---------10---------10----------------------------|
B|-----10----10---10----10---10----10---10----10-------------------------|
G|---7----------7----------7----------7----------------------------------|
D|-----------------------------------------------------------------------|x3
A|-----------------------------------------------------------------------|
D|-----------------------------------------------------------------------|
Original Bass Line:
e|-----------------------------------------------------------------------|
B|-----------------------------------------------------------------------|
G|-----------------------------------------------------------------------|
D|-----------------------------------------------------------------------|x2
A|----6----6-------------6----6------------6----6-----------6---6--------|
D|-------1----1--10-7------1---1----10-7-----1---1---10-7------1---1-10-7|
Guitar Enters on third Round (Bass Mimicks):
e|-------------------------------------------------------------------------|
B|-------------------------------------------------------------------------|
G|--55---7-7-7-77777-7-1010--7-777777--7-x-7-x-7-x-7-----------------------|
D|--55---7-7-7-77777-7-1010--7-777777--7-x-7-x-7-x-7-----------------------|
A|--33---5-5-5-55555-5-8-8---5-555555--5-x-5-x-5-x-5-----------------------|
D|-------------------------------------------------------------------------|

Main Riff
e|---------------------------------------------------------------------------|
B|---------------------------------------------------------------------------|
G|--------------------------------------------------------8------------------|
D|----------10-7------------10-7-------10-7-----------7-8--------------------|
A|----6-5-----------------------------------------5-6------------------------|
|--0-----0----------1--1-0------1-1-0-------1-1-0----------------------------|
(use whammy bar to lower final note)
e|---------------------------------------------------------------------------|
B|---------------------------------------------------------------------------|
G|---------------------------------------------------------------------------|
D|----------10-7------------10-7-------10-7----------------------------------|
A|----6-5--------------------------------------------------------------------|
|--0-----0----------1--1-0------1-1-0-------1-1-0---0--0\--------------------|

Verse: (2 Guitars)
e|----------------------------------------------------------------------|
B|----------------------------------------------------------------------|
G|---7-7-7----7-7-7-3-3-3----3-3-3-5-5-5----5-5-5-7-7-7----7-7-7--------|
D|---7-7-7----7-7-7-5-5-5----5-5-5-5-5-5----5-5-5-7-7-7----7-7-7--------|
A|---5-5-5----5-5-5-6-6-6----6-6-6-3-3-3----3-3-3-5-5-5----5-5-5--------|
D|----------------------------------------------------------------------|
2nd:
e|-------------------------------------------------------------------------|
B|----------------------------7/8---------------------------7h8p7----------|
G|-------------------------------------------------------------------------|
D|-------------------------------------------------------------------------|
A|---5-5-5--6-5-3-5-5-5-6-5--------3-3-3---6-5-3-5-5-5-6-5-----------------|
D|-------------------------------------------------------------------------|
1st
e|----------------------------------------------------------------------|
B|----------------------------------------------------------------------|
G|---7-7-7----7-7-7-3-3-3----3-3-3-5-5-5----5-5-5-7--------7---7--------|
D|---7-7-7----7-7-7-5-5-5----5-5-5-5-5-5----5-5-5-7--------7---7--------|
A|---5-5-5----5-5-5-6-6-6----6-6-6-3-3-3----3-3-3-5--------5---5--------|
D|----------------------------------------------------------------------|
2nd:
e|-----------------------------------------------------------------------|
B|----------------------------7/8----------------------------------------|
G|---------------------------------------------------------0---2---------|
D|-----------------------------------------------------------------------|
A|---5-5-5--6-5-3-5-5-5-6-5--------3-3-3---6-5-3-5-5---------------------|
D|-----------------------------------------------------------------------|

Pre-Chorus:
e|-------------------------------------------------------------------------|
B|---------------------------7/8--------------------------7h8p7------------|
G|----5-7-8--8-7-5-5-7-7-8-7-------5-7-8--8-7-5-5-7-7-8-7------------------|
D|-------------------------------------------------------------------------|
A|-------------------------------------------------------------------------|
D|-------------------------------------------------------------------------|

e|-------------------------------------------------------------------------|
B|---------------------------7/8-------------------------------------------|
G|----5-7-8--8-7-5-5-7-7-8-7-------5-7-8--8-7-5-5-7-7-7-7------------------|
D|-------------------------------------------------------------------------|
A|------------------------------------------------5-5-5-5------------------|
D|-------------------------------------------------------------------------|

Chorus:
e|-------------------------------------------------------------------------|
B|-------------------------------------------------------------------------|
G|-------------------------------------------------------------------------|
D|-12-12-12-12-12-12-12-12--5-5-5-5-5-5-5-5--13-13-13-13-13-13-13-13-------|
A|-12-12-12-12-12-12-12-12--5-5-5-5-5-5-5-5--13-13-13-13-13-13-13-13-------|
D|-12-12-12-12-12-12-12-12--5-5-5-5-5-5-5-5--13-13-13-13-13-13-13-13-------|

e|-------------------------------------------------------------------------|
B|-------------------------------------------------------------------------|
G|-------------------------------------------------------------------------|
D|-10-10-10-10-10-10-10-10-------------------------------------------------|
A|-10-10-10-10-10-10-10-10-------------------------------------------------|
D|-10-10-10-10-10-10-10-10-------------------------------------------------|

e|-------------------------------------------------------------------------|
B|-------------------------------------------------------------------------|
G|-------------------------------------------------------------------------|
D|-12-12-12-12-12-12-12-12--5-5-5-5-5-5-5-5--13-13-13-13-13-13-13-13-------|
A|-12-12-12-12-12-12-12-12--5-5-5-5-5-5-5-5--13-13-13-13-13-13-13-13-------|
D|-12-12-12-12-12-12-12-12--5-5-5-5-5-5-5-5--13-13-13-13-13-13-13-13-------|

e|-------------------------------------------------------------------------|
B|-------------------------------------------------------------------------|
G|-------------------------------------------------------------------------|
D|-15-15----15-15-----15\--------------------------------------------------|
A|-15-15----15-15-----15\--------------------------------------------------|
D|-15-15----15-15-----15\--------------------------------------------------|

Main Riff
e|---------------------------------------------------------------------------|
B|---------------------------------------------------------------------------|
G|---------------------------------------------------------------------------|
D|----------10-7------------10-7-------10-7----------------------------------|
A|----6-5--------------------------------------------------------------------|
D|--0-----0----------1--1-0------1-1-0-------1-1-0---0--0\-------------------|

Verse: (2 Guitars)
e|----------------------------------------------------------------------|
B|----------------------------------------------------------------------|
G|---7-7-7----7-7-7-3-3-3----3-3-3-5-5-5----5-5-5-7-7-7----7-7-7--------|
D|---7-7-7----7-7-7-5-5-5----5-5-5-5-5-5----5-5-5-7-7-7----7-7-7--------|
A|---5-5-5----5-5-5-6-6-6----6-6-6-3-3-3----3-3-3-5-5-5----5-5-5--------|
D|----------------------------------------------------------------------|
2nd:
e|-------------------------------------------------------------------------|
B|----------------------------7/8---------------------------7h8p7----------|
G|-------------------------------------------------------------------------|
D|-------------------------------------------------------------------------|
A|---5-5-5--6-5-3-5-5-5-6-5--------3-3-3---6-5-3-5-5-5-6-5-----------------|
D|-------------------------------------------------------------------------|
1st
e|----------------------------------------------------------------------|
B|----------------------------------------------------------------------|
G|---7-7-7----7-7-7-3-3-3----3-3-3-5-5-5----5-5-5-7--------7---7--------|
D|---7-7-7----7-7-7-5-5-5----5-5-5-5-5-5----5-5-5-7--------7---7--------|
A|---5-5-5----5-5-5-6-6-6----6-6-6-3-3-3----3-3-3-5--------5---5--------|
D|----------------------------------------------------------------------|
2nd:
e|-----------------------------------------------------------------------|
B|----------------------------7/8----------------------------------------|
G|---------------------------------------------------------0---2---------|
D|-----------------------------------------------------------------------|
A|---5-5-5--6-5-3-5-5-5-6-5--------3-3-3---6-5-3-5-5---------------------|
D|-----------------------------------------------------------------------|

Pre-Chorus:
e|-------------------------------------------------------------------------|
B|---------------------------7/8--------------------------7h8p7------------|
G|----5-7-8--8-7-5-5-7-7-8-7-------5-7-8--8-7-5-5-7-7-8-7------------------|
D|-------------------------------------------------------------------------|
A|-------------------------------------------------------------------------|
D|-------------------------------------------------------------------------|

e|-------------------------------------------------------------------------|
B|---------------------------7/8-------------------------------------------|
G|----5-7-8--8-7-5-5-7-7-8-7-------5-7-8--8-7-5-5-14-12-11--14-12-11-------|
D|-------------------------------------------------------------------------|
A|------------------------------------------------12-10-9---12-10-9--------|
D|-------------------------------------------------------------------------|

Chorus:
e|-------------------------------------------------------------------------|
B|-------------------------------------------------------------------------|
G|-------------------------------------------------------------------------|
D|-12-12-12-12-12-12-12-12--5-5-5-5-5-5-5-5--13-13-13-13-13-13-13-13-------|
A|-12-12-12-12-12-12-12-12--5-5-5-5-5-5-5-5--13-13-13-13-13-13-13-13-------|
D|-12-12-12-12-12-12-12-12--5-5-5-5-5-5-5-5--13-13-13-13-13-13-13-13-------|

e|-------------------------------------------------------------------------|
B|-------------------------------------------------------------------------|
G|-------------------------------------------------------------------------|
D|-10-10-10-10-10-10-10-10-------------------------------------------------|
A|-10-10-10-10-10-10-10-10-------------------------------------------------|
D|-10-10-10-10-10-10-10-10-------------------------------------------------|

e|-------------------------------------------------------------------------|
B|-------------------------------------------------------------------------|
G|-------------------------------------------------------------------------|
D|-12-12-12-12-12-12-12-12--5-5-5-5-5-5-5-5--13-13-13-13-13-13-13-13-------|
A|-12-12-12-12-12-12-12-12--5-5-5-5-5-5-5-5--13-13-13-13-13-13-13-13-------|
D|-12-12-12-12-12-12-12-12--5-5-5-5-5-5-5-5--13-13-13-13-13-13-13-13-------|

e|-------------------------------------------------------------------------|
B|-------------------------------------------------------------------------|
G|-------------------------------------------------------------------------|
D|-15-15----15-15-----12---------------------------------------------------|
A|-15-15----15-15-----12---------------------------------------------------|
D|-15-15----15-15-----12---------------------------------------------------|
Feedback..                                       Fade In
e|-------------------------------------------------------------------------|
B|-------------------------------------------------------------------------|
G|-------------------------------------------------------------------------|
D|-12----------------------------------------------------------------------|
A|-12-----------------------------------------------13---------------------|
D|-12----------------------------------------------------------------------|

Interlude
e|-----------------------------------------------------------------------|
B|-----------------------------------------------------------------------|
G|-----------------------------------------------------------------------|
D|-10-7-x-10-7-x-10-7-x-10-7-x-10-7-5-7-8-5-x-8-5-x-8-5-x-8-5-x-8-5-4-5--|x2
A|-----------------------------------------------------------------------|
D|-----------------------------------------------------------------------|

e|-----------------------------------------------------------------------|
B|-----------------------------------------------------------------------|
G|--------------------------------------------------------------7-x-7-x--|
D|-10-7-x-10-7-x-10-7-x-10-7-x-10-7-5-7-7-7-7-7-7-7-7-7-7-7-7-7-7-x-7-x--|
A|--------------------------------------5-5-5-5-5-5-5-5-5-5-5-5-5-x-5-x--|
D|-----------------------------------------------------------------------|

Chorus:
e|-------------------------------------------------------------------------|
B|-------------------------------------------------------------------------|
G|-------------------------------------------------------------------------|
D|-12-12-12-12-12-12-12-12--5-5-5-5-5-5-5-5--13-13-13-13-13-13-13-13-------|
A|-12-12-12-12-12-12-12-12--5-5-5-5-5-5-5-5--13-13-13-13-13-13-13-13-------|
D|-12-12-12-12-12-12-12-12--5-5-5-5-5-5-5-5--13-13-13-13-13-13-13-13-------|

e|-------------------------------------------------------------------------|
B|-------------------------------------------------------------------------|
G|-------------------------------------------------------------------------|
D|-10-10-10-10-10-10-10-10-------------------------------------------------|
A|-10-10-10-10-10-10-10-10-------------------------------------------------|
D|-10-10-10-10-10-10-10-10-------------------------------------------------|

e|-------------------------------------------------------------------------|
B|-------------------------------------------------------------------------|
G|-------------------------------------------------------------------------|
D|-12-12-12-12-12-12-12-12--5-5-5-5-5-5-5-5--13-13-13-13-13-13-13-13-------|
A|-12-12-12-12-12-12-12-12--5-5-5-5-5-5-5-5--13-13-13-13-13-13-13-13-------|
D|-12-12-12-12-12-12-12-12--5-5-5-5-5-5-5-5--13-13-13-13-13-13-13-13-------|

e|-------------------------------------------------------------------------|
B|-------------------------------------------------------------------------|
G|-------------------------------------------------------------------------|
D|-15-15----15-15-----15\--------------------------------------------------|
A|-15-15----15-15-----15\--------------------------------------------------|
D|-15-15----15-15-----15\--------------------------------------------------|

Main Riff
e|---------------------------------------------------------------------------|
B|---------------------------------------------------------------------------|
G|--------------------------------------------------------8------------------|
D|----------10-7------------10-7-------10-7-----------7-8--------------------|
A|----6-5-----------------------------------------5-6------------------------|
D|--0-----0----------1--1-0------1-1-0-------1-1-0---------------------------|
Drums...      Natural Harmonics
e|-------------------------------------------------------------------------|
B|-------------------------------------------------------------------------|
G|-------------------------------------------------------------------------|
D|-------------------------------------------------------------------------|
A|-------------------------------------------------------------------------|
D|-------------------3-3-4-4-5-5-6-----------------------------------------|

e|-------------------------------------------------------------------------|
B|-------------------------------------------------------------------------|
G|-------------------------------------------------------------------------|
D|----------10-7------------10-7-------10-7--------------------------------|
A|----6-5------------------------------------------------------------------|
D|--0-----0----------1--1-0------1-1-0-------0-1-0-------------------------|

e|-------------------------------------------------------------------------|
B|-------------------------------------------------------------------------|
G|-----------8-----------------10-7----------------------------------------|
D|-------7-8---------------------------------------------------------------|
A|---5-6-----------------6-5-----------------------------------------------|
D|---------------------0-----0---------------------------------------------|


| /  slide up
| \  slide down
| h  hammer-on
| p  pull-off
| ~  vibrato
| +  harmonic
| x  Mute note
============================================================================

            
            
Suggest correction
Creating personal tab
Creating personal tab
You can edit any tab online and save it as your Personal.

You can edit, replace or remove any tab part or add personal notes – all changes will be seen only by you.

Personal tabs can be accessed anytime from any device, even offline.
Learn more »
Give kudos to tab author, rate the tab!
1 2 3 4 5
comments
print report bad tab
guest
You may want to rate the tab now too:
select rating
Wanna post a correction for this tab? Suggest correction